  0
SECTION
  2
HEADER
  9
$ACADVER
  1
AC1015
  9
$ACADMAINTVER
 70
     6
  9
$DWGCODEPAGE
  3
ANSI_1254
  9
$INSBASE
 10
0.0
 20
0.0
 30
0.0
  9
$EXTMIN
 10
0.0
 20
0.0
 30
0.0
  9
$EXTMAX
 10
279.4
 20
215.9
 30
0.0
  9
$LIMMIN
 10
0.0
 20
0.0
  9
$LIMMAX
 10
279.4
 20
215.9
  9
$ORTHOMODE
 70
     0
  9
$REGENMODE
 70
     1
  9
$FILLMODE
 70
     1
  9
$QTEXTMODE
 70
     0
  9
$MIRRTEXT
 70
     1
  9
$LTSCALE
 40
1.0
  9
$ATTMODE
 70
     1
  9
$TEXTSIZE
 40
3.5
  9
$TRACEWID
 40
1.0
  9
$TEXTSTYLE
  7
Standard
  9
$CLAYER
  8
0
  9
$CELTYPE
  6
ByLayer
  9
$CECOLOR
 62
   256
  9
$CELTSCALE
 40
1.0
  9
$DISPSILH
 70
     0
  9
$DIMSCALE
 40
1.0
  9
$DIMASZ
 40
3.5
  9
$DIMEXO
 40
1.0
  9
$DIMDLI
 40
3.75
  9
$DIMRND
 40
0.0
  9
$DIMDLE
 40
0.0
  9
$DIMEXE
 40
1.0
  9
$DIMTP
 40
0.0
  9
$DIMTM
 40
0.0
  9
$DIMTXT
 40
3.5
  9
$DIMCEN
 40
2.5
  9
$DIMTSZ
 40
0.0
  9
$DIMTOL
 70
     0
  9
$DIMLIM
 70
     0
  9
$DIMTIH
 70
     1
  9
$DIMTOH
 70
     1
  9
$DIMSE1
 70
     0
  9
$DIMSE2
 70
     0
  9
$DIMTAD
 70
     1
  9
$DIMZIN
 70
     0
  9
$DIMBLK
  1

  9
$DIMASO
 70
     1
  9
$DIMSHO
 70
     1
  9
$DIMPOST
  1

  9
$DIMAPOST
  1

  9
$DIMALT
 70
     0
  9
$DIMALTD
 70
     3
  9
$DIMALTF
 40
0.0393700787
  9
$DIMLFAC
 40
1.0
  9
$DIMTOFL
 70
     1
  9
$DIMTVP
 40
0.0
  9
$DIMTIX
 70
     0
  9
$DIMSOXD
 70
     0
  9
$DIMSAH
 70
     0
  9
$DIMBLK1
  1

  9
$DIMBLK2
  1

  9
$DIMSTYLE
  2
ISO-25
  9
$DIMCLRD
 70
     0
  9
$DIMCLRE
 70
     0
  9
$DIMCLRT
 70
     0
  9
$DIMTFAC
 40
1.0
  9
$DIMGAP
 40
1.524
  9
$DIMJUST
 70
     0
  9
$DIMSD1
 70
     0
  9
$DIMSD2
 70
     0
  9
$DIMTOLJ
 70
     0
  9
$DIMTZIN
 70
     0
  9
$DIMALTZ
 70
     0
  9
$DIMALTTZ
 70
     0
  9
$DIMUPT
 70
     0
  9
$DIMDEC
 70
     2
  9
$DIMTDEC
 70
     2
  9
$DIMALTU
 70
     2
  9
$DIMALTTD
 70
     3
  9
$DIMTXSTY
  7
Standard
  9
$DIMAUNIT
 70
     0
  9
$DIMADEC
 70
     2
  9
$DIMALTRND
 40
0.0
  9
$DIMAZIN
 70
     0
  9
$DIMDSEP
 70
    44
  9
$DIMATFIT
 70
     3
  9
$DIMFRAC
 70
     0
  9
$DIMLDRBLK
  1

  9
$DIMLUNIT
 70
     2
  9
$DIMLWD
 70
    -2
  9
$DIMLWE
 70
    -2
  9
$DIMTMOVE
 70
     0
  9
$LUNITS
 70
     2
  9
$LUPREC
 70
     2
  9
$SKETCHINC
 40
1.0
  9
$FILLETRAD
 40
10.0
  9
$AUNITS
 70
     0
  9
$AUPREC
 70
     2
  9
$MENU
  1
.
  9
$ELEVATION
 40
0.0
  9
$PELEVATION
 40
0.0
  9
$THICKNESS
 40
0.0
  9
$LIMCHECK
 70
     0
  9
$CHAMFERA
 40
0.0
  9
$CHAMFERB
 40
0.0
  9
$CHAMFERC
 40
0.0
  9
$CHAMFERD
 40
0.0
  9
$SKPOLY
 70
     0
  9
$TDCREATE
 40
2459741.601745023
  9
$TDUCREATE
 40
2459741.476745023
  9
$TDUPDATE
 40
2459741.601745208
  9
$TDUUPDATE
 40
2459741.476745208
  9
$TDINDWG
 40
0.0000000116
  9
$TDUSRTIMER
 40
0.0000000116
  9
$USRTIMER
 70
     1
  9
$ANGBASE
 50
0.0
  9
$ANGDIR
 70
     0
  9
$PDMODE
 70
     0
  9
$PDSIZE
 40
-1.0
  9
$PLINEWID
 40
0.0
  9
$SPLFRAME
 70
     0
  9
$SPLINETYPE
 70
     6
  9
$SPLINESEGS
 70
     8
  9
$HANDSEED
  5
128
  9
$SURFTAB1
 70
     6
  9
$SURFTAB2
 70
     6
  9
$SURFTYPE
 70
     6
  9
$SURFU
 70
     6
  9
$SURFV
 70
     6
  9
$UCSBASE
  2

  9
$UCSNAME
  2

  9
$UCSORG
 10
0.0
 20
0.0
 30
0.0
  9
$UCSXDIR
 10
1.0
 20
0.0
 30
0.0
  9
$UCSYDIR
 10
0.0
 20
1.0
 30
0.0
  9
$UCSORTHOREF
  2

  9
$UCSORTHOVIEW
 70
     0
  9
$UCSORGTOP
 10
0.0
 20
0.0
 30
0.0
  9
$UCSORGBOTTOM
 10
0.0
 20
0.0
 30
0.0
  9
$UCSORGLEFT
 10
0.0
 20
0.0
 30
0.0
  9
$UCSORGRIGHT
 10
0.0
 20
0.0
 30
0.0
  9
$UCSORGFRONT
 10
0.0
 20
0.0
 30
0.0
  9
$UCSORGBACK
 10
0.0
 20
0.0
 30
0.0
  9
$PUCSBASE
  2

  9
$PUCSNAME
  2

  9
$PUCSORG
 10
0.0
 20
0.0
 30
0.0
  9
$PUCSXDIR
 10
1.0
 20
0.0
 30
0.0
  9
$PUCSYDIR
 10
0.0
 20
1.0
 30
0.0
  9
$PUCSORTHOREF
  2

  9
$PUCSORTHOVIEW
 70
     0
  9
$PUCSORGTOP
 10
0.0
 20
0.0
 30
0.0
  9
$PUCSORGBOTTOM
 10
0.0
 20
0.0
 30
0.0
  9
$PUCSORGLEFT
 10
0.0
 20
0.0
 30
0.0
  9
$PUCSORGRIGHT
 10
0.0
 20
0.0
 30
0.0
  9
$PUCSORGFRONT
 10
0.0
 20
0.0
 30
0.0
  9
$PUCSORGBACK
 10
0.0
 20
0.0
 30
0.0
  9
$USERI1
 70
     0
  9
$USERI2
 70
     0
  9
$USERI3
 70
     0
  9
$USERI4
 70
     0
  9
$USERI5
 70
     0
  9
$USERR1
 40
0.0
  9
$USERR2
 40
0.0
  9
$USERR3
 40
0.0
  9
$USERR4
 40
0.0
  9
$USERR5
 40
0.0
  9
$WORLDVIEW
 70
     1
  9
$SHADEDGE
 70
     3
  9
$SHADEDIF
 70
    70
  9
$TILEMODE
 70
     1
  9
$MAXACTVP
 70
    64
  9
$PINSBASE
 10
0.0
 20
0.0
 30
0.0
  9
$PLIMCHECK
 70
     0
  9
$PEXTMIN
 10
1.0000000000E+20
 20
1.0000000000E+20
 30
1.0000000000E+20
  9
$PEXTMAX
 10
-1.0000000000E+20
 20
-1.0000000000E+20
 30
-1.0000000000E+20
  9
$PLIMMIN
 10
0.0
 20
0.0
  9
$PLIMMAX
 10
420.0
 20
297.0
  9
$UNITMODE
 70
     0
  9
$VISRETAIN
 70
     1
  9
$PLINEGEN
 70
     0
  9
$PSLTSCALE
 70
     1
  9
$TREEDEPTH
 70
  3020
  9
$CMLSTYLE
  2
Standard
  9
$CMLJUST
 70
     0
  9
$CMLSCALE
 40
20.0
  9
$PROXYGRAPHICS
 70
     1
  9
$MEASUREMENT
 70
     1
  9
$CELWEIGHT
370
    -1
  9
$ENDCAPS
280
     0
  9
$JOINSTYLE
280
     0
  9
$LWDISPLAY
290
     1
  9
$INSUNITS
 70
     4
  9
$HYPERLINKBASE
  1

  9
$STYLESHEET
  1

  9
$XEDIT
290
     1
  9
$CEPSNTYPE
380
     0
  9
$PSTYLEMODE
290
     1
  9
$FINGERPRINTGUID
  2
{17011c23-0d61-4b79-a95f-a772cf3cffe3}
  9
$VERSIONGUID
  2
{FAEB1C32-E019-11D5-929B-00C0DF256EC4}
  9
$EXTNAMES
290
     1
  9
$PSVPSCALE
 40
0.0
  9
$OLESTARTUP
290
     0
  0
ENDSEC
  0
SECTION
  2
CLASSES
  0
CLASS
  1
ACDBDICTIONARYWDFLT
  2
AcDbDictionaryWithDefault
  3
ObjectDBX Classes
 90
        0
280
     0
281
     0
  0
CLASS
  1
VISUALSTYLE
  2
AcDbVisualStyle
  3
ObjectDBX Classes
 90
     4095
280
     0
281
     0
  0
CLASS
  1
MATERIAL
  2
AcDbMaterial
  3
ObjectDBX Classes
 90
     1153
280
     0
281
     0
  0
CLASS
  1
SCALE
  2
AcDbScale
  3
ObjectDBX Classes
 90
     1153
280
     0
281
     0
  0
CLASS
  1
TABLESTYLE
  2
AcDbTableStyle
  3
ObjectDBX Classes
 90
     4095
280
     0
281
     0
  0
CLASS
  1
MLEADERSTYLE
  2
AcDbMLeaderStyle
  3
ACDB_MLEADERSTYLE_CLASS
 90
     4095
280
     0
281
     0
  0
CLASS
  1
SUN
  2
AcDbSun
  3
SCENEOE
 90
     1153
280
     0
281
     0
  0
CLASS
  1
ACDBPLACEHOLDER
  2
AcDbPlaceHolder
  3
ObjectDBX Classes
 90
        0
280
     0
281
     0
  0
CLASS
  1
LAYOUT
  2
AcDbLayout
  3
ObjectDBX Classes
 90
        0
280
     0
281
     0
  0
ENDSEC
  0
SECTION
  2
TABLES
  0
TABLE
  2
VPORT
  5
8
330
0
100
AcDbSymbolTable
 70
     1
  0
VPORT
  5
29
330
8
100
AcDbSymbolTableRecord
100
AcDbViewportTableRecord
  2
*Active
 70
     0
 10
0.0
 20
0.0
 11
1.0
 21
1.0
 12
139.7
 22
107.95
 13
0.0
 23
0.0
 14
10.0
 24
10.0
 15
10.0
 25
10.0
 16
0.0
 26
0.0
 36
1.0
 17
0.0
 27
0.0
 37
0.0
 40
215.9
 41
1.2941176471
 42
50.0
 43
0.0
 44
0.0
 50
0.0
 51
0.0
 71
     0
 72
  2000
 73
     1
 74
     3
 75
     0
 76
     0
 77
     0
 78
     0
281
     0
 65
     1
110
0.0
120
0.0
130
0.0
111
1.0
121
0.0
131
0.0
112
0.0
122
1.0
132
0.0
 79
     0
146
0.0
  0
ENDTAB
  0
TABLE
  2
LTYPE
  5
5
330
0
100
AcDbSymbolTable
 70
     6
  0
LTYPE
  5
14
330
5
100
AcDbSymbolTableRecord
100
AcDbLinetypeTableRecord
  2
ByBlock
 70
     0
  3

 72
    65
 73
     0
 40
0.0
  0
LTYPE
  5
15
330
5
100
AcDbSymbolTableRecord
100
AcDbLinetypeTableRecord
  2
ByLayer
 70
     0
  3

 72
    65
 73
     0
 40
0.0
  0
LTYPE
  5
16
330
5
100
AcDbSymbolTableRecord
100
AcDbLinetypeTableRecord
  2
Continuous
 70
     0
  3
Solid line
 72
    65
 73
     0
 40
0.0
  0
LTYPE
  5
6E
330
5
100
AcDbSymbolTableRecord
100
AcDbLinetypeTableRecord
  2
HIDDEN
 70
     0
  3
Hidden __ __ __ __ __ __ __ __ __ __ __ __ __ __
 72
    65
 73
     2
 40
1.905
 49
1.27
 74
     0
 49
-0.635
 74
     0
  0
LTYPE
  5
6F
330
5
100
AcDbSymbolTableRecord
100
AcDbLinetypeTableRecord
  2
PHANTOM
 70
     0
  3
Phantom ______  __  __  ______  __  __  ______
 72
    65
 73
     6
 40
12.7
 49
6.35
 74
     0
 49
-1.27
 74
     0
 49
1.27
 74
     0
 49
-1.27
 74
     0
 49
1.27
 74
     0
 49
-1.27
 74
     0
  0
LTYPE
  5
70
330
5
100
AcDbSymbolTableRecord
100
AcDbLinetypeTableRecord
  2
CENTER
 70
     0
  3
Center ____ _ ____ _ ____ _ ____ _ ____ _ ____
 72
    65
 73
     4
 40
10.16
 49
6.35
 74
     0
 49
-1.27
 74
     0
 49
1.27
 74
     0
 49
-1.27
 74
     0
  0
LTYPE
  5
71
330
5
100
AcDbSymbolTableRecord
100
AcDbLinetypeTableRecord
  2
CENTERX2
 70
     0
  3
Center (2x) ________  __  ________  __  _____
 72
    65
 73
     4
 40
20.32
 49
12.7
 74
     0
 49
-2.54
 74
     0
 49
2.54
 74
     0
 49
-2.54
 74
     0
  0
LTYPE
  5
72
330
5
100
AcDbSymbolTableRecord
100
AcDbLinetypeTableRecord
  2
DOT2
 70
     0
  3
Dot (.5x) ........................................
 72
    65
 73
     2
 40
0.635
 49
0.0
 74
     0
 49
-0.635
 74
     0
  0
ENDTAB
  0
TABLE
  2
LAYER
  5
2
330
0
100
AcDbSymbolTable
 70
    17
  0
LAYER
  5
10
330
2
100
AcDbSymbolTableRecord
100
AcDbLayerTableRecord
  2
0
 70
     0
 62
     7
  6
Continuous
370
    -3
390
F
  0
LAYER
  5
73
330
2
100
AcDbSymbolTableRecord
100
AcDbLayerTableRecord
  2
FORMAT
 70
     0
 62
     7
  6
Continuous
370
    -3
390
F
  0
LAYER
  5
74
330
2
100
AcDbSymbolTableRecord
100
AcDbLayerTableRecord
  2
YARDIMCI_GEOMETRI
 70
     0
 62
    -6
  6
Continuous
290
     0
370
    -3
390
F
  0
LAYER
  5
75
330
2
100
AcDbSymbolTableRecord
100
AcDbLayerTableRecord
  2
SAYFA_CERCEVESI
 70
     0
 62
     7
  6
Continuous
370
    25
390
F
  0
LAYER
  5
76
330
2
100
AcDbSymbolTableRecord
100
AcDbLayerTableRecord
  2
ANTET
 70
     0
 62
     7
  6
Continuous
370
    -3
390
F
  0
LAYER
  5
77
330
2
100
AcDbSymbolTableRecord
100
AcDbLayerTableRecord
  2
OLCU
 70
     0
 62
   150
  6
Continuous
370
    -3
390
F
  0
LAYER
  5
78
330
2
100
AcDbSymbolTableRecord
100
AcDbLayerTableRecord
  2
METIN
 70
     0
 62
    96
  6
Continuous
370
    -3
390
F
  0
LAYER
  5
79
330
2
100
AcDbSymbolTableRecord
100
AcDbLayerTableRecord
  2
BALON
 70
     0
 62
     5
  6
Continuous
370
    -3
390
F
  0
LAYER
  5
7A
330
2
100
AcDbSymbolTableRecord
100
AcDbLayerTableRecord
  2
VURGU
 70
     0
 62
     7
  6
Continuous
370
    -3
390
F
  0
LAYER
  5
7B
330
2
100
AcDbSymbolTableRecord
100
AcDbLayerTableRecord
  2
SILIK
 70
     0
 62
     7
  6
Continuous
370
    -3
390
F
  0
LAYER
  5
7C
330
2
100
AcDbSymbolTableRecord
100
AcDbLayerTableRecord
  2
MODEL
 70
     0
 62
     7
  6
Continuous
370
    -3
390
F
  0
LAYER
  5
7D
330
2
100
AcDbSymbolTableRecord
100
AcDbLayerTableRecord
  2
DETAYLANDıRMA
 70
     0
 62
   190
  6
Continuous
370
    -3
390
F
  0
LAYER
  5
7E
330
2
100
AcDbSymbolTableRecord
100
AcDbLayerTableRecord
  2
TOLERANS
 70
     0
 62
   230
  6
Continuous
370
    -3
390
F
  0
LAYER
  5
7F
330
2
100
AcDbSymbolTableRecord
100
AcDbLayerTableRecord
  2
MERKEZ_CIZGILERI
 70
     0
 62
    30
  6
Continuous
370
    -3
390
F
  0
LAYER
  5
80
330
2
100
AcDbSymbolTableRecord
100
AcDbLayerTableRecord
  2
KESIT-DETAY_CIZGILERI
 70
     0
 62
     7
  6
Continuous
370
    -3
390
F
  0
LAYER
  5
81
330
2
100
AcDbSymbolTableRecord
100
AcDbLayerTableRecord
  2
\U+041E\U+0421\U+0415\U+0412\U+042B\U+0415
 70
     0
 62
     7
  6
Continuous
370
    -3
390
F
  0
LAYER
  5
82
330
2
100
AcDbSymbolTableRecord
100
AcDbLayerTableRecord
  2
\U+0412\U+041E\U+0414\U+042F\U+041D\U+042B\U+0415_\U+0417\U+041D\U+0410\U+041A\U+0418
 70
     0
 62
    11
  6
Continuous
370
    -3
390
F
  0
ENDTAB
  0
TABLE
  2
STYLE
  5
3
330
0
100
AcDbSymbolTable
 70
     1
  0
STYLE
  5
11
330
3
100
AcDbSymbolTableRecord
100
AcDbTextStyleTableRecord
  2
Standard
 70
     0
 40
0.0
 41
1.0
 50
0.0
 71
     0
 42
3.5
  3
txt
  4

  0
ENDTAB
  0
TABLE
  2
VIEW
  5
6
330
0
100
AcDbSymbolTable
 70
     0
  0
ENDTAB
  0
TABLE
  2
UCS
  5
7
330
0
100
AcDbSymbolTable
 70
     0
  0
ENDTAB
  0
TABLE
  2
APPID
  5
9
330
0
100
AcDbSymbolTable
 70
     1
  0
APPID
  5
12
330
9
100
AcDbSymbolTableRecord
100
AcDbRegAppTableRecord
  2
ACAD
 70
     0
  0
ENDTAB
  0
TABLE
  2
DIMSTYLE
  5
A
330
0
100
AcDbSymbolTable
 70
     1
100
AcDbDimStyleTable
  0
DIMSTYLE
105
27
330
A
100
AcDbSymbolTableRecord
100
AcDbDimStyleTableRecord
  2
ISO-25
 70
     0
 41
2.5
 42
0.625
 43
3.75
 44
1.25
 73
     0
 74
     0
 77
     1
 78
     8
140
2.5
141
2.5
143
0.0393700787
147
0.625
171
     3
172
     1
178
     0
271
     2
272
     2
274
     3
278
    44
283
     0
284
     8
340
11
  0
ENDTAB
  0
TABLE
  2
BLOCK_RECORD
  5
1
330
0
100
AcDbSymbolTable
 70
     4
  0
BLOCK_RECORD
  5
1F
330
1
100
AcDbSymbolTableRecord
100
AcDbBlockTableRecord
  2
*Model_Space
340
22
  0
BLOCK_RECORD
  5
1B
330
1
100
AcDbSymbolTableRecord
100
AcDbBlockTableRecord
  2
*Paper_Space
340
1E
  0
BLOCK_RECORD
  5
23
330
1
100
AcDbSymbolTableRecord
100
AcDbBlockTableRecord
  2
*Paper_Space0
340
26
  0
BLOCK_RECORD
  5
93
330
1
100
AcDbSymbolTableRecord
100
AcDbBlockTableRecord
  2
SW_CENTERMARKSYMBOL_0
340
0
102
{BLKREFS
331
9E
102
}
  0
BLOCK_RECORD
  5
E9
330
1
100
AcDbSymbolTableRecord
100
AcDbBlockTableRecord
  2
SW_CENTERMARKSYMBOL_1
340
0
102
{BLKREFS
331
F4
102
}
  0
BLOCK_RECORD
  5
F5
330
1
100
AcDbSymbolTableRecord
100
AcDbBlockTableRecord
  2
SW_CENTERMARKSYMBOL_2
340
0
102
{BLKREFS
331
100
102
}
  0
ENDTAB
  0
ENDSEC
  0
SECTION
  2
BLOCKS
  0
BLOCK
  5
20
330
1F
100
AcDbEntity
  8
0
100
AcDbBlockBegin
  2
*Model_Space
 70
     0
 10
0.0
 20
0.0
 30
0.0
  3
*Model_Space
  1

  0
ENDBLK
  5
21
330
1F
100
AcDbEntity
  8
0
100
AcDbBlockEnd
  0
BLOCK
  5
1C
330
1B
100
AcDbEntity
 67
     1
  8
0
100
AcDbBlockBegin
  2
*Paper_Space
 70
     0
 10
0.0
 20
0.0
 30
0.0
  3
*Paper_Space
  1

  0
ENDBLK
  5
1D
330
1B
100
AcDbEntity
 67
     1
  8
0
100
AcDbBlockEnd
  0
BLOCK
  5
24
330
23
100
AcDbEntity
  8
0
100
AcDbBlockBegin
  2
*Paper_Space0
 70
     0
 10
0.0
 20
0.0
 30
0.0
  3
*Paper_Space0
  1

  0
ENDBLK
  5
25
330
23
100
AcDbEntity
  8
0
100
AcDbBlockEnd
  0
BLOCK
  5
94
330
93
100
AcDbEntity
  8
0
100
AcDbBlockBegin
  2
SW_CENTERMARKSYMBOL_0
 70
     0
 10
0.0
 20
0.0
 30
0.0
  3
SW_CENTERMARKSYMBOL_0
  1

  0
LINE
  5
96
330
93
100
AcDbEntity
  8
FORMAT
 62
     0
100
AcDbLine
 10
0.0
 20
0.0
 30
0.0
 11
0.0
 21
2.5
 31
0.0
  0
LINE
  5
97
330
93
100
AcDbEntity
  8
FORMAT
 62
     0
100
AcDbLine
 10
0.0
 20
0.0
 30
0.0
 11
-2.5
 21
0.0
 31
0.0
  0
LINE
  5
98
330
93
100
AcDbEntity
  8
FORMAT
 62
     0
100
AcDbLine
 10
0.0
 20
0.0
 30
0.0
 11
0.0
 21
-2.5
 31
0.0
  0
LINE
  5
99
330
93
100
AcDbEntity
  8
FORMAT
 62
     0
100
AcDbLine
 10
0.0
 20
0.0
 30
0.0
 11
2.5
 21
0.0
 31
0.0
  0
LINE
  5
9A
330
93
100
AcDbEntity
  8
FORMAT
 62
     0
100
AcDbLine
 10
0.0
 20
5.0
 30
0.0
 11
0.0
 21
357.5
 31
0.0
  0
LINE
  5
9B
330
93
100
AcDbEntity
  8
FORMAT
 62
     0
100
AcDbLine
 10
-5.0
 20
0.0
 30
0.0
 11
-357.5
 21
0.0
 31
0.0
  0
LINE
  5
9C
330
93
100
AcDbEntity
  8
FORMAT
 62
     0
100
AcDbLine
 10
0.0
 20
-5.0
 30
0.0
 11
0.0
 21
-357.5
 31
0.0
  0
LINE
  5
9D
330
93
100
AcDbEntity
  8
FORMAT
 62
     0
100
AcDbLine
 10
5.0
 20
0.0
 30
0.0
 11
357.5
 21
0.0
 31
0.0
  0
ENDBLK
  5
95
330
93
100
AcDbEntity
  8
0
100
AcDbBlockEnd
  0
BLOCK
  5
EA
330
E9
100
AcDbEntity
  8
0
100
AcDbBlockBegin
  2
SW_CENTERMARKSYMBOL_1
 70
     0
 10
0.0
 20
0.0
 30
0.0
  3
SW_CENTERMARKSYMBOL_1
  1

  0
LINE
  5
EC
330
E9
100
AcDbEntity
  8
FORMAT
 62
     0
100
AcDbLine
 10
0.0
 20
0.0
 30
0.0
 11
0.0
 21
2.5
 31
0.0
  0
LINE
  5
ED
330
E9
100
AcDbEntity
  8
FORMAT
 62
     0
100
AcDbLine
 10
0.0
 20
0.0
 30
0.0
 11
-2.5
 21
0.0
 31
0.0
  0
LINE
  5
EE
330
E9
100
AcDbEntity
  8
FORMAT
 62
     0
100
AcDbLine
 10
0.0
 20
0.0
 30
0.0
 11
0.0
 21
-2.5
 31
0.0
  0
LINE
  5
EF
330
E9
100
AcDbEntity
  8
FORMAT
 62
     0
100
AcDbLine
 10
0.0
 20
0.0
 30
0.0
 11
2.5
 21
0.0
 31
0.0
  0
LINE
  5
F0
330
E9
100
AcDbEntity
  8
FORMAT
 62
     0
100
AcDbLine
 10
0.0
 20
5.0
 30
0.0
 11
0.0
 21
9.5
 31
0.0
  0
LINE
  5
F1
330
E9
100
AcDbEntity
  8
FORMAT
 62
     0
100
AcDbLine
 10
-5.0
 20
0.0
 30
0.0
 11
-9.5
 21
0.0
 31
0.0
  0
LINE
  5
F2
330
E9
100
AcDbEntity
  8
FORMAT
 62
     0
100
AcDbLine
 10
0.0
 20
-5.0
 30
0.0
 11
0.0
 21
-9.5
 31
0.0
  0
LINE
  5
F3
330
E9
100
AcDbEntity
  8
FORMAT
 62
     0
100
AcDbLine
 10
5.0
 20
0.0
 30
0.0
 11
9.5
 21
0.0
 31
0.0
  0
ENDBLK
  5
EB
330
E9
100
AcDbEntity
  8
0
100
AcDbBlockEnd
  0
BLOCK
  5
F6
330
F5
100
AcDbEntity
  8
0
100
AcDbBlockBegin
  2
SW_CENTERMARKSYMBOL_2
 70
     0
 10
0.0
 20
0.0
 30
0.0
  3
SW_CENTERMARKSYMBOL_2
  1

  0
LINE
  5
F8
330
F5
100
AcDbEntity
  8
FORMAT
 62
     0
100
AcDbLine
 10
0.0
 20
0.0
 30
0.0
 11
0.0
 21
2.5
 31
0.0
  0
LINE
  5
F9
330
F5
100
AcDbEntity
  8
FORMAT
 62
     0
100
AcDbLine
 10
0.0
 20
0.0
 30
0.0
 11
-2.5
 21
0.0
 31
0.0
  0
LINE
  5
FA
330
F5
100
AcDbEntity
  8
FORMAT
 62
     0
100
AcDbLine
 10
0.0
 20
0.0
 30
0.0
 11
0.0
 21
-2.5
 31
0.0
  0
LINE
  5
FB
330
F5
100
AcDbEntity
  8
FORMAT
 62
     0
100
AcDbLine
 10
0.0
 20
0.0
 30
0.0
 11
2.5
 21
0.0
 31
0.0
  0
LINE
  5
FC
330
F5
100
AcDbEntity
  8
FORMAT
 62
     0
100
AcDbLine
 10
0.0
 20
5.0
 30
0.0
 11
0.0
 21
9.5
 31
0.0
  0
LINE
  5
FD
330
F5
100
AcDbEntity
  8
FORMAT
 62
     0
100
AcDbLine
 10
-5.0
 20
0.0
 30
0.0
 11
-9.5
 21
0.0
 31
0.0
  0
LINE
  5
FE
330
F5
100
AcDbEntity
  8
FORMAT
 62
     0
100
AcDbLine
 10
0.0
 20
-5.0
 30
0.0
 11
0.0
 21
-9.5
 31
0.0
  0
LINE
  5
FF
330
F5
100
AcDbEntity
  8
FORMAT
 62
     0
100
AcDbLine
 10
5.0
 20
0.0
 30
0.0
 11
9.5
 21
0.0
 31
0.0
  0
ENDBLK
  5
F7
330
F5
100
AcDbEntity
  8
0
100
AcDbBlockEnd
  0
ENDSEC
  0
SECTION
  2
ENTITIES
  0
LINE
  5
83
330
1F
100
AcDbEntity
  8
0
  6
Continuous
 62
     7
370
    25
100
AcDbLine
 10
102.6070913462
 20
518.0781564712
 30
0.0
 11
102.6070913462
 21
526.327075521
 31
0.0
  0
LINE
  5
84
330
1F
100
AcDbEntity
  8
0
  6
Continuous
 62
     7
370
    25
100
AcDbLine
 10
88.6070913462
 20
526.327075521
 30
0.0
 11
88.6070913462
 21
516.8851461456
 31
0.0
  0
LINE
  5
85
330
1F
100
AcDbEntity
  8
0
  6
Continuous
 62
     7
370
    25
100
AcDbLine
 10
172.6070913462
 20
516.8838076788
 30
0.0
 11
172.6070913462
 21
526.327075521
 31
0.0
  0
LINE
  5
86
330
1F
100
AcDbEntity
  8
0
  6
Continuous
 62
     7
370
    25
100
AcDbLine
 10
158.6070913462
 20
526.327075521
 30
0.0
 11
158.6070913462
 21
518.0750128542
 31
0.0
  0
CIRCLE
  5
87
330
1F
100
AcDbEntity
  8
0
  6
Continuous
 62
     7
370
    25
100
AcDbCircle
 10
130.6070913462
 20
111.327075521
 30
0.0
 40
407.5
  0
ARC
  5
88
330
1F
100
AcDbEntity
  8
0
  6
Continuous
 62
     7
370
    25
100
AcDbCircle
 10
130.6070913462
 20
111.327075521
 30
0.0
 40
409.4999999999995
100
AcDbArc
 50
95.8868421387
 51
180.0
  0
ARC
  5
89
330
1F
100
AcDbEntity
  8
0
  6
Continuous
 62
     7
370
    25
100
AcDbCircle
 10
130.6070913462
 20
111.327075521
 30
0.0
 40
409.4999999999994
100
AcDbArc
 50
86.0792807245
 51
93.9207192755
  0
ARC
  5
8A
330
1F
100
AcDbEntity
  8
0
  6
Continuous
 62
     7
370
    25
100
AcDbCircle
 10
130.6070913462
 20
111.327075521
 30
0.0
 40
409.4999999999995
100
AcDbArc
 50
180.0
 51
84.1131578613
  0
SPLINE
  5
8B
330
1F
100
AcDbEntity
  8
0
  6
Continuous
 62
     7
370
    25
100
AcDbSpline
210
0.0
220
0.0
230
1.0
 70
     8
 71
     3
 72
    15
 73
    11
 74
     0
 42
0.00000001
 43
0.00000001
 40
0.0
 40
0.0
 40
0.0
 40
0.0
 40
0.1325097889741418
 40
0.2650089831965386
 40
0.3977626333494498
 40
0.5307464677813093
 40
0.6636881855675828
 40
0.7962424418464931
 40
0.9281922614287144
 40
1.0
 40
1.0
 40
1.0
 40
1.0
 10
101.4157828101197
 20
517.9283079936167
 30
0.0
 10
100.9112470893904
 20
517.8806713420594
 30
0.0
 10
99.90221598782493
 20
517.7854018477082
 30
0.0
 10
97.72866501729797
 20
517.5965748797755
 30
0.0
 10
95.36052031207663
 20
517.3921609504017
 30
0.0
 10
93.00727606377886
 20
517.1896731781777
 30
0.0
 10
90.94113125594363
 20
517.0147371060434
 30
0.0
 10
89.44329212026477
 20
516.8982084988068
 30
0.0
 10
88.64642388971359
 20
516.8501312727951
 30
0.0
 10
88.68950619634694
 20
516.8760218513926
 30
0.0
 10
88.70468915711568
 20
516.8851461455599
 30
0.0
  0
SPLINE
  5
8C
330
1F
100
AcDbEntity
  8
0
  6
Continuous
 62
     7
370
    25
100
AcDbSpline
210
0.0
220
0.0
230
1.0
 70
     8
 71
     3
 72
    10
 73
     6
 74
     0
 42
0.00000001
 43
0.00000001
 40
0.0
 40
0.0
 40
0.0
 40
0.0
 40
0.0784759689192787
 40
0.6461986015214548
 40
1.0
 40
1.0
 40
1.0
 40
1.0
 10
102.5601608267571
 20
518.0781564711972
 30
0.0
 10
102.5751917775222
 20
518.0773177363238
 30
0.0
 10
102.6989618882673
 20
518.0704112997458
 30
0.0
 10
102.2793570766136
 20
518.0169283601122
 30
0.0
 10
101.6553560014746
 20
517.9528930986207
 30
0.0
 10
101.4157828101197
 20
517.9283079936167
 30
0.0
  0
SPLINE
  5
8D
330
1F
100
AcDbEntity
  8
0
  6
Continuous
 62
     7
370
    25
100
AcDbSpline
210
0.0
220
0.0
230
1.0
 70
     8
 71
     3
 72
    14
 73
    10
 74
     0
 42
0.00000001
 43
0.00000001
 40
0.0
 40
0.0
 40
0.0
 40
0.0
 40
0.1570727184101601
 40
0.3141338696464774
 40
0.4714236404938234
 40
0.6286440706377657
 40
0.7855267107096692
 40
0.9419836442364138
 40
0.9999999999999999
 40
0.9999999999999999
 40
0.9999999999999999
 40
0.9999999999999999
 10
169.4706803309646
 20
517.0831574330231
 30
0.0
 10
168.7693822859773
 20
517.1426200615832
 30
0.0
 10
167.3668378411037
 20
517.2615409397471
 30
0.0
 10
164.9466539573687
 20
517.4704506122558
 30
0.0
 10
162.6348051106324
 20
517.6701092520743
 30
0.0
 10
160.6371372187334
 20
517.8464597687722
 30
0.0
 10
159.2582134056639
 20
517.9800703760174
 30
0.0
 10
158.5862011832992
 20
518.0588143770359
 30
0.0
 10
158.6755688752837
 20
518.0715640015983
 30
0.0
 10
158.6997433905769
 20
518.075012854166
 30
0.0
  0
SPLINE
  5
8E
330
1F
100
AcDbEntity
  8
0
  6
Continuous
 62
     7
370
    25
100
AcDbSpline
210
0.0
220
0.0
230
1.0
 70
     8
 71
     3
 72
    11
 73
     7
 74
     0
 42
0.00000001
 43
0.00000001
 40
0.0
 40
0.0
 40
0.0
 40
0.0
 40
0.1081052530750566
 40
0.4483358424182163
 40
0.788355296583827
 40
0.9999999999999999
 40
0.9999999999999999
 40
0.9999999999999999
 40
0.9999999999999999
 10
172.5212988734004
 20
516.8838076788185
 30
0.0
 10
172.5454859268399
 20
516.8769487025022
 30
0.0
 10
172.6457948634642
 20
516.8485030457233
 30
0.0
 10
172.0126728706095
 20
516.8822953751453
 30
0.0
 10
170.8740425227403
 20
516.9665308247498
 30
0.0
 10
169.8597943450159
 20
517.0508200592814
 30
0.0
 10
169.4706803309646
 20
517.0831574330231
 30
0.0
  0
CIRCLE
  5
8F
330
1F
100
AcDbEntity
  8
0
  6
Continuous
 62
     7
370
    25
100
AcDbCircle
 10
130.6070913462
 20
111.327075521
 30
0.0
 40
355.0
  0
LINE
  5
90
330
1F
100
AcDbEntity
  8
0
  6
Continuous
 62
     7
370
    25
100
AcDbLine
 10
95.6070913462
 20
526.327075521
 30
0.0
 11
88.6070913462
 21
526.327075521
 31
0.0
  0
LINE
  5
91
330
1F
100
AcDbEntity
  8
0
  6
Continuous
 62
     7
370
    25
100
AcDbLine
 10
102.6070913462
 20
526.327075521
 30
0.0
 11
95.6070913462
 21
526.327075521
 31
0.0
  0
LINE
  5
92
330
1F
100
AcDbEntity
  8
0
  6
Continuous
 62
     7
370
    25
100
AcDbLine
 10
172.6070913462
 20
526.327075521
 30
0.0
 11
158.6070913462
 21
526.327075521
 31
0.0
  0
INSERT
  5
9E
330
1F
100
AcDbEntity
  8
FORMAT
 62
     7
100
AcDbBlockReference
  2
SW_CENTERMARKSYMBOL_0
 10
130.6070913462
 20
111.327075521
 30
0.0
  0
ARC
  5
9F
330
1F
100
AcDbEntity
  8
0
  6
Continuous
 62
     7
370
    25
100
AcDbCircle
 10
1194.710704344
 20
-11036.4229244791
 30
0.0
 40
11557.25000000008
100
AcDbArc
 50
90.0
 51
90.9717286692
  0
LINE
  5
A0
330
1F
100
AcDbEntity
  8
0
  6
Continuous
 62
     7
370
    25
100
AcDbLine
 10
984.710704344
 20
518.9190247019
 30
0.0
 11
979.710704344
 21
518.827075521
 31
0.0
  0
ARC
  5
A1
330
1F
100
AcDbEntity
  8
0
  6
Continuous
 62
     7
370
    25
100
AcDbCircle
 10
1194.710704344
 20
11259.077075521
 30
0.0
 40
11557.25000000008
100
AcDbArc
 50
268.9340627547
 51
270.0
  0
LINE
  5
A2
330
1F
100
AcDbEntity
  8
0
  6
Continuous
 62
     7
370
    25
100
AcDbLine
 10
1194.710704344
 20
-298.172924479
 30
0.0
 11
1239.710704344
 21
-298.172924479
 31
0.0
  0
LINE
  5
A3
330
1F
100
AcDbEntity
  8
0
  6
Continuous
 62
     7
370
    25
100
AcDbLine
 10
1239.710704344
 20
520.827075521
 30
0.0
 11
1194.710704344
 21
520.827075521
 31
0.0
  0
LINE
  5
A4
330
1F
100
AcDbEntity
  8
0
  6
Continuous
 62
     7
370
    25
100
AcDbLine
 10
1454.710704344
 20
518.827075521
 30
0.0
 11
1449.710704344
 21
518.9190247019
 31
0.0
  0
ARC
  5
A5
330
1F
100
AcDbEntity
  8
0
  6
Continuous
 62
     7
370
    25
100
AcDbCircle
 10
1239.710704344
 20
-11036.4229244791
 30
0.0
 40
11557.25000000008
100
AcDbArc
 50
89.0282713308
 51
90.0
  0
ARC
  5
A6
330
1F
100
AcDbEntity
  8
0
  6
Continuous
 62
     7
370
    25
100
AcDbCircle
 10
1239.710704344
 20
11259.077075521
 30
0.0
 40
11557.25000000008
100
AcDbArc
 50
270.0
 51
271.0659372453
  0
LINE
  5
A7
330
1F
100
AcDbEntity
  8
0
  6
Continuous
 62
     7
370
    25
100
AcDbLine
 10
998.710704344
 20
517.6589104453
 30
0.0
 11
998.710704344
 21
526.327075521
 31
0.0
  0
LINE
  5
A8
330
1F
100
AcDbEntity
  8
0
  6
Continuous
 62
     7
370
    25
100
AcDbLine
 10
984.710704344
 20
526.327075521
 30
0.0
 11
984.710704344
 21
517.4130347151
 31
0.0
  0
LINE
  5
A9
330
1F
100
AcDbEntity
  8
0
  6
Continuous
 62
     7
370
    25
100
AcDbLine
 10
1449.710704344
 20
517.4131373203
 30
0.0
 11
1449.710704344
 21
526.327075521
 31
0.0
  0
LINE
  5
AA
330
1F
100
AcDbEntity
  8
0
  6
Continuous
 62
     7
370
    25
100
AcDbLine
 10
1435.710704344
 20
526.327075521
 30
0.0
 11
1435.710704344
 21
517.6575415072
 31
0.0
  0
LINE
  5
AB
330
1F
100
AcDbEntity
  8
0
  6
Continuous
 62
     7
370
    25
100
AcDbLine
 10
979.710704344
 20
111.327075521
 30
0.0
 11
979.710704344
 21
518.827075521
 31
0.0
  0
LINE
  5
AC
330
1F
100
AcDbEntity
  8
0
  6
Continuous
 62
     7
370
    25
100
AcDbLine
 10
979.710704344
 20
-296.172924479
 30
0.0
 11
979.710704344
 21
111.327075521
 31
0.0
  0
SPLINE
  5
AD
330
1F
100
AcDbEntity
  8
0
  6
Continuous
 62
     7
370
    25
100
AcDbSpline
210
0.0
220
0.0
230
1.0
 70
     8
 71
     3
 72
    18
 73
    14
 74
     0
 42
0.00000001
 43
0.00000001
 40
0.0
 40
0.0
 40
0.0
 40
0.0
 40
0.0094822736595965
 40
0.1172184859264233
 40
0.225245954452613
 40
0.3332572528443747
 40
0.4408868951036812
 40
0.5479569200202123
 40
0.6546226919557088
 40
0.7612773925211049
 40
0.8682922226741994
 40
0.9757998946750237
 40
1.0
 40
1.0
 40
1.0
 40
1.0
 10
998.6789534460341
 20
517.658910445283
 30
0.0
 10
998.6893400090412
 20
517.653371311018
 30
0.0
 10
998.8177371881742
 20
517.5848973399857
 30
0.0
 10
998.3151707578861
 20
517.4251795640719
 30
0.0
 10
997.1526818214911
 20
517.209937746592
 30
0.0
 10
995.2879325841615
 20
517.0232017592424
 30
0.0
 10
993.0421312765818
 20
516.8977008697342
 30
0.0
 10
990.6458736246324
 20
516.850774069223
 30
0.0
 10
988.3827289711995
 20
516.8874795717165
 30
0.0
 10
986.4764168639773
 20
516.9992108695678
 30
0.0
 10
985.2181208047621
 20
517.1669726248454
 30
0.0
 10
984.64333784447
 20
517.3154118695285
 30
0.0
 10
984.7588789911695
 20
517.3978816445862
 30
0.0
 10
984.7801086252599
 20
517.4130347151415
 30
0.0
  0
LINE
  5
AE
330
1F
100
AcDbEntity
  8
0
  6
Continuous
 62
     7
370
    25
100
AcDbLine
 10
1454.710704344
 20
111.327075521
 30
0.0
 11
1454.710704344
 21
518.827075521
 31
0.0
  0
LINE
  5
AF
330
1F
100
AcDbEntity
  8
0
  6
Continuous
 62
     7
370
    25
100
AcDbLine
 10
1454.710704344
 20
-296.172924479
 30
0.0
 11
1454.710704344
 21
111.327075521
 31
0.0
  0
SPLINE
  5
B0
330
1F
100
AcDbEntity
  8
0
  6
Continuous
 62
     7
370
    25
100
AcDbSpline
210
0.0
220
0.0
230
1.0
 70
     8
 71
     3
 72
    18
 73
    14
 74
     0
 42
0.00000001
 43
0.00000001
 40
0.0
 40
0.0
 40
0.0
 40
0.0
 40
0.0109617237267498
 40
0.1188969809310745
 40
0.2267980544995208
 40
0.3343846480589293
 40
0.441480655445969
 40
0.5481731294736585
 40
0.6548097306553851
 40
0.761796202912907
 40
0.8693353945377102
 40
0.9773044307381736
 40
1.0
 40
1.0
 40
1.0
 40
1.0
 10
1449.674420542272
 20
517.4131373203381
 30
0.0
 10
1449.686239155246
 20
517.4063064536199
 30
0.0
 10
1449.814430435778
 20
517.3322150561189
 30
0.0
 10
1449.303502963015
 20
517.1892192938714
 30
0.0
 10
1448.12772555895
 20
517.0154727798657
 30
0.0
 10
1446.25831975237
 20
516.8957313715125
 30
0.0
 10
1444.015581222397
 20
516.8507212678533
 30
0.0
 10
1441.626414027125
 20
516.8891126836787
 30
0.0
 10
1439.368404083034
 20
517.0060533383946
 30
0.0
 10
1437.463335659606
 20
517.1855189233634
 30
0.0
 10
1436.209023380697
 20
517.3982514578227
 30
0.0
 10
1435.638525127336
 20
517.5664751895275
 30
0.0
 10
1435.756622433056
 20
517.6440647233788
 30
0.0
 10
1435.777135146289
 20
517.6575415071894
 30
0.0
  0
LINE
  5
B1
330
1F
100
AcDbEntity
  8
0
  6
Continuous
 62
     7
370
    25
100
AcDbLine
 10
998.710704344
 20
526.327075521
 30
0.0
 11
984.710704344
 21
526.327075521
 31
0.0
  0
LINE
  5
B2
330
1F
100
AcDbEntity
  8
0
  6
Continuous
 62
     7
370
    25
100
AcDbLine
 10
1449.710704344
 20
526.327075521
 30
0.0
 11
1435.710704344
 21
526.327075521
 31
0.0
  0
LINE
  5
B3
330
1F
100
AcDbEntity
  8
0
  6
Continuous
 62
     1
370
    25
100
AcDbLine
 10
1194.710704344
 20
111.327075521
 30
0.0
 11
1194.710704344
 21
520.827075521
 31
0.0
  0
LINE
  5
B4
330
1F
100
AcDbEntity
  8
0
  6
Continuous
 62
     1
370
    25
100
AcDbLine
 10
1194.710704344
 20
-298.172924479
 30
0.0
 11
1194.710704344
 21
111.327075521
 31
0.0
  0
LINE
  5
B5
330
1F
100
AcDbEntity
  8
0
  6
Continuous
 62
     1
370
    25
100
AcDbLine
 10
1239.710704344
 20
111.327075521
 30
0.0
 11
1239.710704344
 21
520.827075521
 31
0.0
  0
LINE
  5
B6
330
1F
100
AcDbEntity
  8
0
  6
Continuous
 62
     1
370
    25
100
AcDbLine
 10
1239.710704344
 20
-298.172924479
 30
0.0
 11
1239.710704344
 21
111.327075521
 31
0.0
  0
ARC
  5
B7
330
1F
100
AcDbEntity
  8
0
  6
Continuous
 62
     7
370
    25
100
AcDbCircle
 10
11278.3570913462
 20
914.5724641022
 30
0.0
 40
11557.25000000008
100
AcDbArc
 50
180.0
 51
181.0659372453
  0
ARC
  5
B8
330
1F
100
AcDbEntity
  8
0
  6
Continuous
 62
     7
370
    25
100
AcDbCircle
 10
-11017.1429086539
 20
914.5724641022
 30
0.0
 40
11557.25000000008
100
AcDbArc
 50
358.9340627547
 51
0.0
  0
LINE
  5
B9
330
1F
100
AcDbEntity
  8
0
  6
Continuous
 62
     7
370
    25
100
AcDbLine
 10
540.1070913462
 20
914.5724641022
 30
0.0
 11
540.1070913462
 21
959.5724641022
 31
0.0
  0
LINE
  5
BA
330
1F
100
AcDbEntity
  8
0
  6
Continuous
 62
     7
370
    25
100
AcDbLine
 10
-278.8929086538
 20
959.5724641022
 30
0.0
 11
-278.8929086538
 21
914.5724641022
 31
0.0
  0
ARC
  5
BB
330
1F
100
AcDbEntity
  8
0
  6
Continuous
 62
     7
370
    25
100
AcDbCircle
 10
11278.3570913462
 20
959.5724641022
 30
0.0
 40
11557.25000000008
100
AcDbArc
 50
178.9340627547
 51
180.0
  0
ARC
  5
BC
330
1F
100
AcDbEntity
  8
0
  6
Continuous
 62
     7
370
    25
100
AcDbCircle
 10
-11017.1429086539
 20
959.5724641022
 30
0.0
 40
11557.25000000008
100
AcDbArc
 50
0.0
 51
1.0659372453
  0
LINE
  5
BD
330
1F
100
AcDbEntity
  8
0
  6
Continuous
 62
     7
370
    25
100
AcDbLine
 10
538.1070913462
 20
699.5724641022
 30
0.0
 11
-276.8929086538
 21
699.5724641022
 31
0.0
  0
LINE
  5
BE
330
1F
100
AcDbEntity
  8
0
  6
Continuous
 62
     7
370
    25
100
AcDbLine
 10
538.1070913462
 20
1174.5724641022
 30
0.0
 11
-276.8929086538
 21
1174.5724641022
 31
0.0
  0
LINE
  5
BF
330
1F
100
AcDbEntity
  8
0
  6
Continuous
 62
     1
370
    25
100
AcDbLine
 10
540.1070913462
 20
914.5724641022
 30
0.0
 11
-278.8929086538
 21
914.5724641022
 31
0.0
  0
LINE
  5
C0
330
1F
100
AcDbEntity
  8
0
  6
Continuous
 62
     1
370
    25
100
AcDbLine
 10
540.1070913462
 20
959.5724641022
 30
0.0
 11
-278.8929086538
 21
959.5724641022
 31
0.0
  0
ARC
  5
C1
330
1F
100
AcDbEntity
  8
0
  6
Continuous
 62
     7
370
    25
100
AcDbCircle
 10
-772.3054791803
 20
11259.077075521
 30
0.0
 40
11557.25000000008
100
AcDbArc
 50
270.0
 51
271.0659372453
  0
LINE
  5
C2
330
1F
100
AcDbEntity
  8
0
  6
Continuous
 62
     7
370
    25
100
AcDbLine
 10
-557.3054791803
 20
518.827075521
 30
0.0
 11
-562.3054791803
 21
518.9190247019
 31
0.0
  0
ARC
  5
C3
330
1F
100
AcDbEntity
  8
0
  6
Continuous
 62
     7
370
    25
100
AcDbCircle
 10
-772.3054791803
 20
-11036.4229244791
 30
0.0
 40
11557.25000000008
100
AcDbArc
 50
89.0282713308
 51
90.0
  0
LINE
  5
C4
330
1F
100
AcDbEntity
  8
0
  6
Continuous
 62
     7
370
    25
100
AcDbLine
 10
-772.3054791803
 20
520.827075521
 30
0.0
 11
-817.3054791803
 21
520.827075521
 31
0.0
  0
LINE
  5
C5
330
1F
100
AcDbEntity
  8
0
  6
Continuous
 62
     7
370
    25
100
AcDbLine
 10
-817.3054791803
 20
-298.172924479
 30
0.0
 11
-772.3054791803
 21
-298.172924479
 31
0.0
  0
ARC
  5
C6
330
1F
100
AcDbEntity
  8
0
  6
Continuous
 62
     7
370
    25
100
AcDbCircle
 10
-817.3054791803
 20
11259.077075521
 30
0.0
 40
11557.25000000008
100
AcDbArc
 50
268.9340627547
 51
270.0
  0
ARC
  5
C7
330
1F
100
AcDbEntity
  8
0
  6
Continuous
 62
     7
370
    25
100
AcDbCircle
 10
-817.3054791803
 20
-11036.4229244791
 30
0.0
 40
11557.25000000008
100
AcDbArc
 50
90.0
 51
90.9717286692
  0
LINE
  5
C8
330
1F
100
AcDbEntity
  8
0
  6
Continuous
 62
     7
370
    25
100
AcDbLine
 10
-1027.3054791803
 20
518.9190247019
 30
0.0
 11
-1032.3054791803
 21
518.827075521
 31
0.0
  0
LINE
  5
C9
330
1F
100
AcDbEntity
  8
0
  6
Continuous
 62
     7
370
    25
100
AcDbLine
 10
-562.3054791803
 20
517.4137530132
 30
0.0
 11
-562.3054791803
 21
526.327075521
 31
0.0
  0
LINE
  5
CA
330
1F
100
AcDbEntity
  8
0
  6
Continuous
 62
     7
370
    25
100
AcDbLine
 10
-576.3054791803
 20
526.327075521
 30
0.0
 11
-576.3054791803
 21
517.6582152495
 31
0.0
  0
LINE
  5
CB
330
1F
100
AcDbEntity
  8
0
  6
Continuous
 62
     7
370
    25
100
AcDbLine
 10
-1013.3054791803
 20
517.6600675943
 30
0.0
 11
-1013.3054791803
 21
526.327075521
 31
0.0
  0
LINE
  5
CC
330
1F
100
AcDbEntity
  8
0
  6
Continuous
 62
     7
370
    25
100
AcDbLine
 10
-1027.3054791803
 20
526.327075521
 30
0.0
 11
-1027.3054791803
 21
517.4141249204
 31
0.0
  0
LINE
  5
CD
330
1F
100
AcDbEntity
  8
0
  6
Continuous
 62
     7
370
    25
100
AcDbLine
 10
-557.3054791803
 20
518.827075521
 30
0.0
 11
-557.3054791803
 21
-296.172924479
 31
0.0
  0
SPLINE
  5
CE
330
1F
100
AcDbEntity
  8
0
  6
Continuous
 62
     7
370
    25
100
AcDbSpline
210
0.0
220
0.0
230
1.0
 70
     8
 71
     3
 72
     9
 73
     5
 74
     0
 42
0.00000001
 43
0.00000001
 40
0.0
 40
0.0
 40
0.0
 40
0.0
 40
0.5774644334676426
 40
1.0
 40
1.0
 40
1.0
 40
1.0
 10
-575.1363068510467
 20
517.2881579906316
 30
0.0
 10
-575.5290876247785
 20
517.3613238097687
 30
0.0
 10
-576.2092693831136
 20
517.488025672077
 30
0.0
 10
-576.2216682625943
 20
517.6076638599898
 30
0.0
 10
-576.2269072301601
 20
517.6582152494984
 30
0.0
  0
SPLINE
  5
CF
330
1F
100
AcDbEntity
  8
0
  6
Continuous
 62
     7
370
    25
100
AcDbSpline
210
0.0
220
0.0
230
1.0
 70
     8
 71
     3
 72
    15
 73
    11
 74
     0
 42
0.00000001
 43
0.00000001
 40
0.0
 40
0.0
 40
0.0
 40
0.0
 40
0.1270765710012175
 40
0.2597582923084821
 40
0.3921010271605455
 40
0.5238552021742119
 40
0.6550748050642113
 40
0.7861514692896263
 40
0.9175946941086078
 40
1.0
 40
1.0
 40
1.0
 40
1.0
 10
-562.3215589868349
 20
517.4137530132441
 30
0.0
 10
-562.3863037108802
 20
517.3485195109093
 30
0.0
 10
-562.5186489482554
 20
517.2151751577032
 30
0.0
 10
-563.6908074667658
 20
517.0378512245144
 30
0.0
 10
-565.4527918538171
 20
516.9088313365826
 30
0.0
 10
-567.661402923923
 20
516.8521556278571
 30
0.0
 10
-570.0458530775992
 20
516.8783518023272
 30
0.0
 10
-572.3341228747422
 20
516.9849898459988
 30
0.0
 10
-574.0726521373498
 20
517.1342174953608
 30
0.0
 10
-574.8404430301747
 20
517.2453382460928
 30
0.0
 10
-575.1363068510467
 20
517.2881579906316
 30
0.0
  0
LINE
  5
D0
330
1F
100
AcDbEntity
  8
0
  6
Continuous
 62
     7
370
    25
100
AcDbLine
 10
-1032.3054791803
 20
518.827075521
 30
0.0
 11
-1032.3054791803
 21
-296.172924479
 31
0.0
  0
SPLINE
  5
D1
330
1F
100
AcDbEntity
  8
0
  6
Continuous
 62
     7
370
    25
100
AcDbSpline
210
0.0
220
0.0
230
1.0
 70
     8
 71
     3
 72
     9
 73
     5
 74
     0
 42
0.00000001
 43
0.00000001
 40
0.0
 40
0.0
 40
0.0
 40
0.0
 40
0.5781931274685393
 40
1.0
 40
1.0
 40
1.0
 40
1.0
 10
-1026.14266002007
 20
517.0831574330231
 30
0.0
 10
-1026.533966672648
 20
517.1425051484681
 30
0.0
 10
-1027.210741670463
 20
517.2451485605496
 30
0.0
 10
-1027.222077047822
 20
517.3639947717197
 30
0.0
 10
-1027.226858387894
 20
517.4141249203657
 30
0.0
  0
SPLINE
  5
D2
330
1F
100
AcDbEntity
  8
0
  6
Continuous
 62
     7
370
    25
100
AcDbSpline
210
0.0
220
0.0
230
1.0
 70
     8
 71
     3
 72
    15
 73
    11
 74
     0
 42
0.00000001
 43
0.00000001
 40
0.0
 40
0.0
 40
0.0
 40
0.0
 40
0.1271203401443806
 40
0.2597930930507166
 40
0.3925041683773151
 40
0.5247974369980443
 40
0.6564095105380484
 40
0.7874787820248352
 40
0.918466716516145
 40
1.0
 40
1.0
 40
1.0
 40
1.0
 10
-1013.320318635189
 20
517.6600675943048
 30
0.0
 10
-1013.385761160832
 20
517.5925158320715
 30
0.0
 10
-1013.519504636775
 20
517.4544617548748
 30
0.0
 10
-1014.692234777967
 20
517.2358368482435
 30
0.0
 10
-1016.457098604335
 20
517.0444590148106
 30
0.0
 10
-1018.673068195604
 20
516.9096409086185
 30
0.0
 10
-1021.065188005067
 20
516.8519912879899
 30
0.0
 10
-1023.355333899787
 20
516.878647950032
 30
0.0
 10
-1025.087345068649
 20
516.9670542404311
 30
0.0
 10
-1025.850050001614
 20
517.0509651881567
 30
0.0
 10
-1026.14266002007
 20
517.0831574330231
 30
0.0
  0
LINE
  5
D3
330
1F
100
AcDbEntity
  8
0
  6
Continuous
 62
     7
370
    25
100
AcDbLine
 10
-562.3054791803
 20
526.327075521
 30
0.0
 11
-576.3054791803
 21
526.327075521
 31
0.0
  0
LINE
  5
D4
330
1F
100
AcDbEntity
  8
0
  6
Continuous
 62
     7
370
    25
100
AcDbLine
 10
-1013.3054791803
 20
526.327075521
 30
0.0
 11
-1027.3054791803
 21
526.327075521
 31
0.0
  0
LINE
  5
D5
330
1F
100
AcDbEntity
  8
0
  6
Continuous
 62
     1
370
    25
100
AcDbLine
 10
-772.3054791803
 20
520.827075521
 30
0.0
 11
-772.3054791803
 21
-298.172924479
 31
0.0
  0
LINE
  5
D6
330
1F
100
AcDbEntity
  8
0
  6
Continuous
 62
     1
370
    25
100
AcDbLine
 10
-817.3054791803
 20
520.827075521
 30
0.0
 11
-817.3054791803
 21
-298.172924479
 31
0.0
  0
ARC
  5
D7
330
1F
100
AcDbEntity
  8
0
  6
Continuous
 62
     7
370
    25
100
AcDbCircle
 10
-11017.1429086539
 20
-839.3338791628
 30
0.0
 40
11557.25000000008
100
AcDbArc
 50
0.0
 51
1.0659372453
  0
ARC
  5
D8
330
1F
100
AcDbEntity
  8
0
  6
Continuous
 62
     7
370
    25
100
AcDbCircle
 10
11278.3570913462
 20
-839.3338791628
 30
0.0
 40
11557.25000000008
100
AcDbArc
 50
178.9340627547
 51
180.0
  0
LINE
  5
D9
330
1F
100
AcDbEntity
  8
0
  6
Continuous
 62
     7
370
    25
100
AcDbLine
 10
-278.8929086538
 20
-839.3338791628
 30
0.0
 11
-278.8929086538
 21
-884.3338791628
 31
0.0
  0
LINE
  5
DA
330
1F
100
AcDbEntity
  8
0
  6
Continuous
 62
     7
370
    25
100
AcDbLine
 10
540.1070913462
 20
-884.3338791628
 30
0.0
 11
540.1070913462
 21
-839.3338791628
 31
0.0
  0
ARC
  5
DB
330
1F
100
AcDbEntity
  8
0
  6
Continuous
 62
     7
370
    25
100
AcDbCircle
 10
-11017.1429086539
 20
-884.3338791628
 30
0.0
 40
11557.25000000008
100
AcDbArc
 50
358.9340627547
 51
0.0
  0
ARC
  5
DC
330
1F
100
AcDbEntity
  8
0
  6
Continuous
 62
     7
370
    25
100
AcDbCircle
 10
11278.3570913462
 20
-884.3338791628
 30
0.0
 40
11557.25000000008
100
AcDbArc
 50
180.0
 51
181.0659372453
  0
CIRCLE
  5
DD
330
1F
100
AcDbEntity
  8
0
  6
Continuous
 62
     7
370
    25
100
AcDbCircle
 10
165.6070913462
 20
-636.3338791628
 30
0.0
 40
7.0
  0
CIRCLE
  5
DE
330
1F
100
AcDbEntity
  8
0
  6
Continuous
 62
     7
370
    25
100
AcDbCircle
 10
165.6070913462
 20
-636.3338791628
 30
0.0
 40
5.0
  0
CIRCLE
  5
DF
330
1F
100
AcDbEntity
  8
0
  6
Continuous
 62
     7
370
    25
100
AcDbCircle
 10
95.6070913462
 20
-636.3338791628
 30
0.0
 40
5.000000000000114
  0
CIRCLE
  5
E0
330
1F
100
AcDbEntity
  8
0
  6
Continuous
 62
     7
370
    25
100
AcDbCircle
 10
95.6070913462
 20
-636.3338791628
 30
0.0
 40
7.000000000000114
  0
CIRCLE
  5
E1
330
1F
100
AcDbEntity
  8
0
  6
Continuous
 62
     7
370
    25
100
AcDbCircle
 10
165.6070913462
 20
-1087.3338791628
 30
0.0
 40
7.0
  0
CIRCLE
  5
E2
330
1F
100
AcDbEntity
  8
0
  6
Continuous
 62
     7
370
    25
100
AcDbCircle
 10
165.6070913462
 20
-1087.3338791628
 30
0.0
 40
5.0
  0
CIRCLE
  5
E3
330
1F
100
AcDbEntity
  8
0
  6
Continuous
 62
     7
370
    25
100
AcDbCircle
 10
95.6070913462
 20
-1087.3338791628
 30
0.0
 40
5.0
  0
CIRCLE
  5
E4
330
1F
100
AcDbEntity
  8
0
  6
Continuous
 62
     7
370
    25
100
AcDbCircle
 10
95.6070913462
 20
-1087.3338791628
 30
0.0
 40
7.0
  0
LINE
  5
E5
330
1F
100
AcDbEntity
  8
0
  6
Continuous
 62
     7
370
    25
100
AcDbLine
 10
-276.8929086538
 20
-624.3338791628
 30
0.0
 11
538.1070913462
 21
-624.3338791628
 31
0.0
  0
LINE
  5
E6
330
1F
100
AcDbEntity
  8
0
  6
Continuous
 62
     7
370
    25
100
AcDbLine
 10
-276.8929086538
 20
-1099.3338791628
 30
0.0
 11
538.1070913462
 21
-1099.3338791628
 31
0.0
  0
LINE
  5
E7
330
1F
100
AcDbEntity
  8
0
  6
Continuous
 62
     1
370
    25
100
AcDbLine
 10
-278.8929086538
 20
-839.3338791628
 30
0.0
 11
540.1070913462
 21
-839.3338791628
 31
0.0
  0
LINE
  5
E8
330
1F
100
AcDbEntity
  8
0
  6
Continuous
 62
     1
370
    25
100
AcDbLine
 10
-278.8929086538
 20
-884.3338791628
 30
0.0
 11
540.1070913462
 21
-884.3338791628
 31
0.0
  0
INSERT
  5
F4
330
1F
100
AcDbEntity
  8
FORMAT
 62
     7
100
AcDbBlockReference
  2
SW_CENTERMARKSYMBOL_1
 10
130.6070913462
 20
-723.8338791628
 30
0.0
  0
INSERT
  5
100
330
1F
100
AcDbEntity
  8
FORMAT
 62
     7
100
AcDbBlockReference
  2
SW_CENTERMARKSYMBOL_2
 10
130.6070913462
 20
-999.8338791628
 30
0.0
  0
SPLINE
  5
101
330
1F
100
AcDbEntity
  8
0
  6
Continuous
 62
     7
370
    25
100
AcDbSpline
210
0.0
220
0.0
230
1.0
 70
     8
 71
     3
 72
    11
 73
     7
 74
     0
 42
0.00000001
 43
0.00000001
 40
0.0
 40
0.0
 40
0.0
 40
0.0
 40
0.2170128984067353
 40
0.4955493631110383
 40
0.7740621462574849
 40
1.0
 40
1.0
 40
1.0
 40
1.0
 10
948.5150981405606
 20
-613.9220233096715
 30
0.0
 10
937.325772028326
 20
-620.389846475202
 30
0.0
 10
911.7749247318345
 20
-635.1591328813324
 30
0.0
 10
872.0570910576579
 20
-658.5591388395934
 30
0.0
 10
831.999106983919
 20
-682.4246735535322
 30
0.0
 10
806.32212802166
 20
-698.0123823542903
 30
0.0
 10
794.8216935032245
 20
-704.9939445006413
 30
0.0
  0
SPLINE
  5
102
330
1F
100
AcDbEntity
  8
0
  6
Continuous
 62
     7
370
    25
100
AcDbSpline
210
0.0
220
0.0
230
1.0
 70
     8
 71
     3
 72
    12
 73
     8
 74
     0
 42
0.00000001
 43
0.00000001
 40
0.0
 40
0.0
 40
0.0
 40
0.0
 40
0.1027525264628649
 40
0.3813247266583931
 40
0.6598955468131237
 40
0.9384598267469019
 40
1.0
 40
1.0
 40
1.0
 40
1.0
 10
1202.222929147585
 20
-1410.709793868987
 30
0.0
 10
1207.594607457058
 20
-1407.780830240836
 30
0.0
 10
1227.529433719428
 20
-1396.911158288774
 30
0.0
 10
1261.876476740452
 20
-1377.816606042446
 30
0.0
 10
1305.245236569881
 20
-1353.402712365364
 30
0.0
 10
1337.266349447621
 20
-1335.174843574111
 30
0.0
 10
1354.784942480992
 20
-1325.008402258675
 30
0.0
 10
1357.954842905177
 20
-1323.168836342801
 30
0.0
  0
LINE
  5
103
330
1F
100
AcDbEntity
  8
0
  6
Continuous
 62
     7
370
    25
100
AcDbLine
 10
980.3214491809
 20
-595.5292184503
 30
0.0
 11
948.5016440275
 21
-613.8984009663
 31
0.0
  0
LINE
  5
104
330
1F
100
AcDbEntity
  8
0
  6
Continuous
 62
     7
370
    25
100
AcDbLine
 10
1357.968365042
 20
-1323.1924192561
 30
0.0
 11
1389.7881701954
 21
-1304.8232367401
 31
0.0
  0
SPLINE
  5
105
330
1F
100
AcDbEntity
  8
0
  6
Continuous
 62
     7
370
    25
100
AcDbSpline
210
0.0
220
0.0
230
1.0
 70
     8
 71
     3
 72
    12
 73
     8
 74
     0
 42
0.00000001
 43
0.00000001
 40
0.0
 40
0.0
 40
0.0
 40
0.0
 40
0.1027562261591016
 40
0.3813271410676412
 40
0.6598966759366409
 40
0.9384596706168367
 40
1.0
 40
1.0
 40
1.0
 40
1.0
 10
1136.067539408938
 20
-508.0114864305649
 30
0.0
 10
1130.695642842087
 20
-510.9405689196056
 30
0.0
 10
1110.760598158988
 20
-521.8103594252228
 30
0.0
 10
1076.413337335824
 20
-540.9050313891465
 30
0.0
 10
1033.044577672185
 20
-565.3189253829447
 30
0.0
 10
1001.023442050856
 20
-583.5468071904386
 30
0.0
 10
983.5048263803303
 20
-593.7132617135778
 30
0.0
 10
980.3349032939559
 20
-595.5528407936588
 30
0.0
  0
SPLINE
  5
106
330
1F
100
AcDbEntity
  8
0
  6
Continuous
 62
     7
370
    25
100
AcDbSpline
210
0.0
220
0.0
230
1.0
 70
     8
 71
     3
 72
    11
 73
     7
 74
     0
 42
0.00000001
 43
0.00000001
 40
0.0
 40
0.0
 40
0.0
 40
0.0
 40
0.2170129495179083
 40
0.4955489149940821
 40
0.7740611989534288
 40
1.0
 40
1.0
 40
1.0
 40
1.0
 10
1389.774648058571
 20
-1304.799653826791
 30
0.0
 10
1400.963996867712
 20
-1298.331817557064
 30
0.0
 10
1426.514866869609
 20
-1283.562518061605
 30
0.0
 10
1466.232723204923
 20
-1260.162498935191
 30
0.0
 10
1506.290776311185
 20
-1236.296922761274
 30
0.0
 10
1531.967824045468
 20
-1220.709172079838
 30
0.0
 10
1543.468327368662
 20
-1213.72756810542
 30
0.0
  0
LINE
  5
107
330
1F
100
AcDbEntity
  8
0
  6
Continuous
 62
     7
370
    25
100
AcDbLine
 10
1041.4410652954
 20
-734.307894597
 30
0.0
 11
1041.4410652954
 21
-726.8335384855
 31
0.0
  0
LINE
  5
108
330
1F
100
AcDbEntity
  8
0
  6
Continuous
 62
     7
370
    25
100
AcDbLine
 10
1027.4410652954
 20
-726.8335384855
 30
0.0
 11
1027.4410652954
 21
-733.758735236
 31
0.0
  0
LINE
  5
109
330
1F
100
AcDbEntity
  8
0
  6
Continuous
 62
     7
370
    25
100
AcDbLine
 10
991.9435906123
 20
-705.047158711
 30
0.0
 11
991.9435906123
 21
-698.2592545717
 31
0.0
  0
LINE
  5
10A
330
1F
100
AcDbEntity
  8
0
  6
Continuous
 62
     7
370
    25
100
AcDbLine
 10
977.9435906123
 20
-698.2592545717
 30
0.0
 11
977.9435906123
 21
-705.8758694946
 31
0.0
  0
LINE
  5
10B
330
1F
100
AcDbEntity
  8
0
  6
Continuous
 62
     7
370
    25
100
AcDbLine
 10
1360.3462236105
 20
-550.3487713453
 30
0.0
 11
1360.3462236105
 21
-542.7335092695
 31
0.0
  0
LINE
  5
10C
330
1F
100
AcDbEntity
  8
0
  6
Continuous
 62
     7
370
    25
100
AcDbLine
 10
1346.3462236105
 20
-542.7335092695
 30
0.0
 11
1346.3462236105
 21
-549.516663484
 31
0.0
  0
LINE
  5
10D
330
1F
100
AcDbEntity
  8
0
  6
Continuous
 62
     7
370
    25
100
AcDbLine
 10
1310.8487489275
 20
-521.0874670383
 30
0.0
 11
1310.8487489275
 21
-514.1592253557
 31
0.0
  0
LINE
  5
10E
330
1F
100
AcDbEntity
  8
0
  6
Continuous
 62
     7
370
    25
100
AcDbLine
 10
1296.8487489275
 20
-514.1592253557
 30
0.0
 11
1296.8487489275
 21
-521.6342464441
 31
0.0
  0
LWPOLYLINE
  5
10F
330
1F
100
AcDbEntity
  8
0
  6
Continuous
 62
     7
370
    25
100
AcDbPolyline
 90
      215
 70
   128
 43
0.0
 10
713.0610332461
 20
-889.9661293483
 10
713.1852223836
 20
-880.2697422664
 10
713.5576827465
 20
-870.7250990754
 10
714.1780932786
 20
-861.340427139
 10
715.0459191938
 20
-852.1238159275
 10
716.160412437
 20
-843.0832100449
 10
717.5206123288
 20
-834.2264023809
 10
719.125346394
 20
-825.5610273935
 10
720.9732313716
 20
-817.0945545279
 10
723.062674408
 20
-808.8342817783
 10
725.3918744291
 20
-800.787329397
 10
727.9588236936
 20
-792.9606337566
 10
730.7613095232
 20
-785.3609413714
 10
733.7969162101
 20
-777.9948030816
 10
737.063027099
 20
-770.8685684066
 10
740.556826843
 20
-763.9883800719
 10
744.2753038303
 20
-757.3601687142
 10
748.21525278
 20
-750.9896477692
 10
752.3732775052
 20
-744.8823085466
 10
756.7457938404
 20
-739.0434154967
 10
761.329032731
 20
-733.4780016726
 10
766.119043482
 20
-728.1908643917
 10
771.1116971639
 20
-723.1865611005
 10
776.3026901714
 20
-718.4694054461
 10
781.6875479332
 20
-714.043463558
 10
787.2616287689
 20
-709.9125505429
 10
793.0201278903
 20
-706.0802271965
 10
798.9580815428
 20
-702.5497969336
 10
805.0703712844
 20
-699.3243029412
 10
811.3517283974
 20
-696.4065255551
 10
817.7967384303
 20
-693.7989798628
 10
824.3998458645
 20
-691.5039135364
 10
831.1553589038
 20
-689.5233048945
 10
838.0574543801
 20
-687.858861197
 10
845.100182773
 20
-686.5120171737
 10
852.2774733383
 20
-685.4839337872
 10
859.583139341
 20
-684.7754972329
 10
867.010883388
 20
-684.387318174
 10
874.5543028563
 20
-684.3197312161
 10
882.2068954124
 20
-684.5727946184
 10
889.9620646168
 20
-685.1462902433
 10
897.8131256102
 20
-686.0397237447
 10
905.7533108758
 20
-687.2523249941
 10
913.7757760728
 20
-688.7830487444
 10
921.8736059361
 20
-690.6305755307
 10
930.0398202372
 20
-692.7933128079
 10
938.2673798011
 20
-695.2693963234
 10
946.5491925739
 20
-698.0566917241
 10
954.8781197362
 20
-701.152796396
 10
963.2469818564
 20
-704.5550415356
 10
971.6485650797
 20
-708.2604944498
 10
980.0756273459
 20
-712.2659610844
 10
988.5209046323
 20
-716.567988777
 10
996.977117215
 20
-721.1628692333
 10
1005.4369759442
 20
-726.0466417236
 10
1013.893188527
 20
-731.2150964969
 10
1022.3384658134
 20
-736.6637784095
 10
1030.7655280796
 20
-742.3879907654
 10
1039.1671113028
 20
-748.382799365
 10
1047.5359734231
 20
-754.6430367577
 10
1055.8649005853
 20
-761.163306697
 10
1064.1467133581
 20
-767.9379887914
 10
1072.374272922
 20
-774.9612433492
 10
1080.5404872232
 20
-782.2270164126
 10
1088.6383170865
 20
-789.7290449757
 10
1096.6607822835
 20
-797.4608623831
 10
1104.6009675491
 20
-805.4158039047
 10
1112.4520285424
 20
-813.5870124799
 10
1120.2071977468
 20
-821.9674446287
 10
1127.8597903029
 20
-830.5498765229
 10
1135.4032097713
 20
-839.3269102131
 10
1142.8309538182
 20
-848.2909800056
 10
1150.1366198209
 20
-857.4343589839
 10
1157.3139103862
 20
-866.7491656692
 10
1164.3566387791
 20
-876.2273708141
 10
1171.2587342554
 20
-885.8608043238
 10
1178.0142472947
 20
-895.6411622986
 10
1184.617354729
 20
-905.5600141917
 10
1191.0623647618
 20
-915.6088100764
 10
1197.3437218748
 20
-925.7788880157
 10
1203.4560116164
 20
-936.0614815291
 10
1209.3939652689
 20
-946.4477271491
 10
1215.1524643903
 20
-956.9286720612
 10
1220.726545226
 20
-967.4952818215
 10
1226.1114029878
 20
-978.1384481441
 10
1231.3023959953
 20
-988.8489967519
 10
1236.2950496772
 20
-999.6176952856
 10
1241.0850604283
 20
-1010.4352612612
 10
1245.6682993188
 20
-1021.2923700714
 10
1250.040815654
 20
-1032.1796630237
 10
1254.1988403792
 20
-1043.0877554072
 10
1258.1387893289
 20
-1054.007244582
 10
1261.8572663163
 20
-1064.9287180846
 10
1265.3510660603
 20
-1075.8427617407
 10
1268.6171769492
 20
-1086.7399677807
 10
1271.652783636
 20
-1097.6109429486
 10
1274.4552694656
 20
-1108.4463165992
 10
1277.0222187301
 20
-1119.2367487755
 10
1279.3514187513
 20
-1129.9729382592
 10
1281.4408617876
 20
-1140.6456305887
 10
1283.2887467653
 20
-1151.2456260362
 10
1284.8934808304
 20
-1161.7637875376
 10
1286.2536807222
 20
-1172.1910485687
 10
1287.3681739654
 20
-1182.5184209602
 10
1288.2359998806
 20
-1192.737002646
 10
1288.8564104128
 20
-1202.8379853357
 10
1289.2288707757
 20
-1212.8126621081
 10
1289.3530599131
 20
-1222.652434916
 10
1289.2288707757
 20
-1232.3488219979
 10
1288.8564104128
 20
-1241.8934651889
 10
1288.2359998806
 20
-1251.2781371253
 10
1287.3681739654
 20
-1260.4947483368
 10
1286.2536807222
 20
-1269.5353542194
 10
1284.8934808304
 20
-1278.3921618834
 10
1283.2887467653
 20
-1287.0575368708
 10
1281.4408617876
 20
-1295.5240097364
 10
1279.3514187513
 20
-1303.784282486
 10
1277.0222187301
 20
-1311.8312348673
 10
1274.4552694656
 20
-1319.6579305077
 10
1271.652783636
 20
-1327.2576228929
 10
1268.6171769492
 20
-1334.6237611827
 10
1265.3510660603
 20
-1341.7499958577
 10
1261.8572663162
 20
-1348.6301841924
 10
1258.1387893289
 20
-1355.2583955501
 10
1254.1988403792
 20
-1361.6289164951
 10
1250.040815654
 20
-1367.7362557177
 10
1245.6682993188
 20
-1373.5751487676
 10
1241.0850604283
 20
-1379.1405625917
 10
1236.2950496772
 20
-1384.4276998726
 10
1231.3023959953
 20
-1389.4320031638
 10
1226.1114029878
 20
-1394.1491588182
 10
1220.726545226
 20
-1398.5751007063
 10
1215.1524643903
 20
-1402.7060137214
 10
1209.3939652689
 20
-1406.5383370678
 10
1203.4560116164
 20
-1410.0687673307
 10
1197.3437218748
 20
-1413.2942613231
 10
1191.0623647618
 20
-1416.2120387092
 10
1184.617354729
 20
-1418.8195844015
 10
1178.0142472947
 20
-1421.1146507279
 10
1171.2587342554
 20
-1423.0952593698
 10
1164.3566387791
 20
-1424.7597030673
 10
1157.3139103862
 20
-1426.1065470906
 10
1150.1366198209
 20
-1427.134630477
 10
1142.8309538182
 20
-1427.8430670314
 10
1135.4032097713
 20
-1428.2312460903
 10
1127.8597903029
 20
-1428.2988330482
 10
1120.2071977468
 20
-1428.0457696459
 10
1112.4520285424
 20
-1427.472274021
 10
1104.600967549
 20
-1426.5788405196
 10
1096.6607822835
 20
-1425.3662392702
 10
1088.6383170865
 20
-1423.8355155199
 10
1080.5404872232
 20
-1421.9879887336
 10
1072.374272922
 20
-1419.8252514564
 10
1064.1467133581
 20
-1417.3491679409
 10
1055.8649005853
 20
-1414.5618725402
 10
1047.5359734231
 20
-1411.4657678683
 10
1039.1671113028
 20
-1408.0635227287
 10
1030.7655280796
 20
-1404.3580698145
 10
1022.3384658134
 20
-1400.3526031799
 10
1013.893188527
 20
-1396.0505754873
 10
1005.4369759442
 20
-1391.455695031
 10
996.977117215
 20
-1386.5719225407
 10
988.5209046322
 20
-1381.4034677674
 10
980.0756273458
 20
-1375.9547858548
 10
971.6485650797
 20
-1370.2305734989
 10
963.2469818564
 20
-1364.2357648993
 10
954.8781197362
 20
-1357.9755275066
 10
946.5491925739
 20
-1351.4552575673
 10
938.2673798011
 20
-1344.6805754729
 10
930.0398202372
 20
-1337.657320915
 10
921.8736059361
 20
-1330.3915478517
 10
913.7757760728
 20
-1322.8895192886
 10
905.7533108758
 20
-1315.1577018812
 10
897.8131256102
 20
-1307.2027603596
 10
889.9620646168
 20
-1299.0315517844
 10
882.2068954124
 20
-1290.6511196356
 10
874.5543028563
 20
-1282.0686877414
 10
867.010883388
 20
-1273.2916540512
 10
859.583139341
 20
-1264.3275842587
 10
852.2774733383
 20
-1255.1842052804
 10
845.100182773
 20
-1245.8693985951
 10
838.0574543801
 20
-1236.3911934502
 10
831.1553589038
 20
-1226.7577599405
 10
824.3998458645
 20
-1216.9774019657
 10
817.7967384302
 20
-1207.0585500726
 10
811.3517283974
 20
-1197.0097541879
 10
805.0703712844
 20
-1186.8396762486
 10
798.9580815428
 20
-1176.5570827352
 10
793.0201278903
 20
-1166.1708371152
 10
787.2616287689
 20
-1155.6898922031
 10
781.6875479332
 20
-1145.1232824428
 10
776.3026901714
 20
-1134.4801161202
 10
771.1116971639
 20
-1123.7695675124
 10
766.119043482
 20
-1113.0008689786
 10
761.329032731
 20
-1102.1833030031
 10
756.7457938404
 20
-1091.3261941929
 10
752.3732775052
 20
-1080.4389012406
 10
748.21525278
 20
-1069.5308088571
 10
744.2753038303
 20
-1058.6113196822
 10
740.556826843
 20
-1047.6898461797
 10
737.0630270989
 20
-1036.7758025236
 10
733.7969162101
 20
-1025.8785964836
 10
730.7613095232
 20
-1015.0076213157
 10
727.9588236936
 20
-1004.1722476651
 10
725.3918744291
 20
-993.3818154888
 10
723.062674408
 20
-982.6456260051
 10
720.9732313716
 20
-971.9729336756
 10
719.125346394
 20
-961.3729382281
 10
717.5206123288
 20
-950.8547767267
 10
716.160412437
 20
-940.4275156956
 10
715.0459191938
 20
-930.1001433041
 10
714.1780932786
 20
-919.8815616183
 10
713.5576827465
 20
-909.7805789286
 10
713.1852223836
 20
-899.8059021562
 10
713.0610332461
 20
-889.9661293483
  0
SPLINE
  5
110
330
1F
100
AcDbEntity
  8
0
  6
Continuous
 62
     7
370
    25
100
AcDbSpline
210
0.0
220
0.0
230
1.0
 70
     8
 71
     3
 72
    13
 73
     9
 74
     0
 42
0.00000001
 43
0.00000001
 40
0.0
 40
0.0
 40
0.0
 40
0.0
 40
0.1914027375972824
 40
0.382790171687527
 40
0.5745451526743092
 40
0.7666326215586549
 40
0.9586592553807307
 40
1.0
 40
1.0
 40
1.0
 40
1.0
 10
986.2887914149503
 20
-709.0828859639588
 30
0.0
 10
985.4997764854181
 20
-709.1652357111755
 30
0.0
 10
983.9218097116349
 20
-709.3299286213773
 30
0.0
 10
981.6357864380515
 20
-709.0312394612318
 30
0.0
 10
979.7152567073853
 20
-708.366097487357
 30
0.0
 10
978.4485699355292
 20
-707.369104169138
 30
0.0
 10
977.8732018479972
 20
-706.4838272915634
 30
0.0
 10
977.9903347655587
 20
-705.9705413136387
 30
0.0
 10
978.0110847181176
 20
-705.8796133327369
 30
0.0
  0
SPLINE
  5
111
330
1F
100
AcDbEntity
  8
0
  6
Continuous
 62
     7
370
    25
100
AcDbSpline
210
0.0
220
0.0
230
1.0
 70
     8
 71
     3
 72
    12
 73
     8
 74
     0
 42
0.00000001
 43
0.00000001
 40
0.0
 40
0.0
 40
0.0
 40
0.0
 40
0.115136430398713
 40
0.35963801645196
 40
0.6037491382555403
 40
0.8478671154466745
 40
1.0
 40
1.0
 40
1.0
 40
1.0
 10
991.844326344711
 20
-705.0477477784289
 30
0.0
 10
991.8654004807357
 20
-705.2478093195195
 30
0.0
 10
991.9312272607744
 20
-705.8727178350694
 30
0.0
 10
991.1922232605914
 20
-706.9328509509669
 30
0.0
 10
989.7526027531305
 20
-708.0303776569491
 30
0.0
 10
987.9896217670465
 20
-708.7524699826178
 30
0.0
 10
986.7606365951679
 20
-708.9912218023508
 30
0.0
 10
986.2887914149503
 20
-709.0828859639588
 30
0.0
  0
SPLINE
  5
112
330
1F
100
AcDbEntity
  8
0
  6
Continuous
 62
     7
370
    25
100
AcDbSpline
210
0.0
220
0.0
230
1.0
 70
     8
 71
     3
 72
    12
 73
     8
 74
     0
 42
0.00000001
 43
0.00000001
 40
0.0
 40
0.0
 40
0.0
 40
0.0
 40
0.2469188213669436
 40
0.4938194590991941
 40
0.7410794875994147
 40
0.9882305122896134
 40
1.0
 40
1.0
 40
1.0
 40
1.0
 10
1033.045525111431
 20
-738.3414684539185
 30
0.0
 10
1032.288664033307
 20
-738.1581003455645
 30
0.0
 10
1030.774997613943
 20
-737.7913776324795
 30
0.0
 10
1028.941421549337
 20
-736.6913672989222
 30
0.0
 10
1027.807220579143
 20
-735.3416098796687
 30
0.0
 10
1027.321742682623
 20
-734.2923474993212
 30
0.0
 10
1027.453155586513
 20
-733.783473687116
 30
0.0
 10
1027.459129089898
 20
-733.7603423252036
 30
0.0
  0
SPLINE
  5
113
330
1F
100
AcDbEntity
  8
0
  6
Continuous
 62
     7
370
    25
100
AcDbSpline
210
0.0
220
0.0
230
1.0
 70
     8
 71
     3
 72
    13
 73
     9
 74
     0
 42
0.00000001
 43
0.00000001
 40
0.0
 40
0.0
 40
0.0
 40
0.0
 40
0.1225839009709752
 40
0.3136572180848513
 40
0.5037466740768969
 40
0.6930521522450839
 40
0.882240154069297
 40
0.9999999999999999
 40
0.9999999999999999
 40
0.9999999999999999
 40
0.9999999999999999
 10
1041.348580005552
 20
-734.3053779373067
 30
0.0
 10
1041.353364344573
 20
-734.6321621761815
 30
0.0
 10
1041.365606102712
 20
-735.4683097817607
 30
0.0
 10
1040.486460544548
 20
-736.6905126671403
 30
0.0
 10
1038.925348188038
 20
-737.7766123076337
 30
0.0
 10
1036.837769609445
 20
-738.4228015590071
 30
0.0
 10
1034.780650261796
 20
-738.576266542557
 30
0.0
 10
1033.52662793442
 20
-738.4065715522471
 30
0.0
 10
1033.045525111431
 20
-738.3414684539185
 30
0.0
  0
LWPOLYLINE
  5
114
330
1F
100
AcDbEntity
  8
0
  6
Continuous
 62
     7
370
    25
100
AcDbPolyline
 90
      201
 70
   128
 43
0.0
 10
750.1841392584
 20
-911.3968422836
 10
750.30800391
 20
-902.3632486395
 10
750.6794756253
 20
-893.4815811443
 10
751.2981878065
 20
-884.7606049315
 10
752.1635298595
 20
-876.2089265518
 10
753.2746477961
 20
-867.8349854793
 10
754.6304450771
 20
-859.6470457828
 10
756.2295836942
 20
-851.6531879703
 10
758.0704854907
 20
-843.8613010142
 10
760.1513337188
 20
-836.2790745664
 10
762.4700748324
 20
-828.9139913689
 10
765.0244205141
 20
-821.7733198696
 10
767.811849933
 20
-814.8641070492
 10
770.8296122329
 20
-808.1931714665
 10
774.0747292467
 20
-801.7670965297
 10
777.5439984357
 20
-795.5922239988
 10
781.23399605
 20
-789.6746477275
 10
785.1410805075
 20
-784.0202076492
 10
789.2613959876
 20
-778.6344840136
 10
793.5908762363
 20
-773.5227918796
 10
798.1252485793
 20
-768.6901758703
 10
802.8600381386
 20
-764.1414051941
 10
807.7905722485
 20
-759.8809689387
 10
812.9119850671
 20
-755.9130716401
 10
818.2192223783
 20
-752.2416291341
 10
823.7070465796
 20
-748.870264691
 10
829.3700418511
 20
-745.8023054405
 10
835.2026195001
 20
-743.0407790881
 10
841.1990234766
 20
-740.5884109269
 10
847.353336054
 20
-738.447621148
 10
853.6594836686
 20
-736.6205224527
 10
860.1112429142
 20
-735.1089179666
 10
866.7022466834
 20
-733.9142994611
 10
873.425990451
 20
-733.0378458801
 10
880.2758386939
 20
-732.4804221778
 10
887.2450314388
 20
-732.2425784639
 10
894.3266909338
 20
-732.3245494614
 10
901.513828436
 20
-732.726254275
 10
908.7993511084
 20
-733.4472964703
 10
916.1760690197
 20
-734.486964466
 10
923.63670224
 20
-735.8442322351
 10
931.1738880249
 20
-737.5177603182
 10
938.7801880821
 20
-739.5058971452
 10
946.4480959118
 20
-741.806680665
 10
954.1700442146
 20
-744.4178402822
 10
961.93841236
 20
-747.3367990973
 10
969.7455339063
 20
-750.5606764505
 10
977.5837041673
 20
-754.086290764
 10
985.4451878152
 20
-757.9101626821
 10
993.3222265147
 20
-762.0285185051
 10
1001.2070465796
 20
-766.4372939127
 10
1009.0918666446
 20
-771.1321379761
 10
1016.9689053441
 20
-776.1084174508
 10
1024.8303889919
 20
-781.36122135
 10
1032.6685592529
 20
-786.8853657903
 10
1040.4756807993
 20
-792.6753991081
 10
1048.2440489446
 20
-798.7256072395
 10
1055.9659972475
 20
-805.0300193595
 10
1063.6339050771
 20
-811.5824137746
 10
1071.2402051343
 20
-818.3763240626
 10
1078.7773909193
 20
-825.4050454541
 10
1086.2380241395
 20
-832.6616414499
 10
1093.6147420509
 20
-840.1389506657
 10
1100.9002647233
 20
-847.8295939001
 10
1108.0874022255
 20
-855.7259814168
 10
1115.1690617205
 20
-863.8203204345
 10
1122.1382544653
 20
-872.1046228179
 10
1128.9881027082
 20
-880.5707129608
 10
1135.7118464759
 20
-889.2102358543
 10
1142.302850245
 20
-898.0146653324
 10
1148.7546094906
 20
-906.9753124861
 10
1155.0607571053
 20
-916.0833342385
 10
1161.2150696826
 20
-925.3297420718
 10
1167.2114736592
 20
-934.7054108978
 10
1173.0440513082
 20
-944.2010880633
 10
1178.7070465796
 20
-953.8074024813
 10
1184.1948707809
 20
-963.5148738794
 10
1189.5021080921
 20
-973.3139221552
 10
1194.6235209107
 20
-983.1948768312
 10
1199.5540550206
 20
-993.1479865979
 10
1204.2888445799
 20
-1003.1634289379
 10
1208.8232169229
 20
-1013.2313198185
 10
1213.1526971716
 20
-1023.3417234471
 10
1217.2730126517
 20
-1033.4846620759
 10
1221.1800971092
 20
-1043.650125849
 10
1224.8700947236
 20
-1053.828082681
 10
1228.3393639125
 20
-1064.0084881573
 10
1231.5844809263
 20
-1074.1812954468
 10
1234.6022432262
 20
-1084.3364652169
 10
1237.3896726451
 20
-1094.463975541
 10
1239.9440183268
 20
-1104.5538317893
 10
1242.2627594405
 20
-1114.5960764916
 10
1244.3436076685
 20
-1124.580799165
 10
1246.184509465
 20
-1134.4981460935
 10
1247.7836480821
 20
-1144.3383300532
 10
1249.1394453631
 20
-1154.0916399705
 10
1250.2505632997
 20
-1163.748450506
 10
1251.1159053527
 20
-1173.2992315536
 10
1251.734617534
 20
-1182.7345576454
 10
1252.1060892493
 20
-1192.0451172539
 10
1252.2299539008
 20
-1201.2217219807
 10
1252.1060892493
 20
-1210.2553156248
 10
1251.734617534
 20
-1219.13698312
 10
1251.1159053527
 20
-1227.8579593328
 10
1250.2505632997
 20
-1236.4096377125
 10
1249.1394453631
 20
-1244.783578785
 10
1247.7836480821
 20
-1252.9715184815
 10
1246.184509465
 20
-1260.965376294
 10
1244.3436076685
 20
-1268.75726325
 10
1242.2627594405
 20
-1276.3394896979
 10
1239.9440183268
 20
-1283.7045728954
 10
1237.3896726451
 20
-1290.8452443947
 10
1234.6022432262
 20
-1297.7544572151
 10
1231.5844809263
 20
-1304.4253927978
 10
1228.3393639125
 20
-1310.8514677346
 10
1224.8700947236
 20
-1317.0263402655
 10
1221.1800971092
 20
-1322.9439165368
 10
1217.2730126517
 20
-1328.5983566151
 10
1213.1526971716
 20
-1333.9840802507
 10
1208.8232169229
 20
-1339.0957723847
 10
1204.2888445799
 20
-1343.928388394
 10
1199.5540550206
 20
-1348.4771590702
 10
1194.6235209107
 20
-1352.7375953256
 10
1189.5021080921
 20
-1356.7054926242
 10
1184.1948707809
 20
-1360.3769351302
 10
1178.7070465796
 20
-1363.7482995733
 10
1173.0440513082
 20
-1366.8162588238
 10
1167.2114736592
 20
-1369.5777851762
 10
1161.2150696826
 20
-1372.0301533374
 10
1155.0607571053
 20
-1374.1709431163
 10
1148.7546094906
 20
-1375.9980418116
 10
1142.302850245
 20
-1377.5096462977
 10
1135.7118464759
 20
-1378.7042648032
 10
1128.9881027082
 20
-1379.5807183842
 10
1122.1382544653
 20
-1380.1381420865
 10
1115.1690617205
 20
-1380.3759858004
 10
1108.0874022255
 20
-1380.2940148029
 10
1100.9002647232
 20
-1379.8923099893
 10
1093.6147420508
 20
-1379.1712677939
 10
1086.2380241395
 20
-1378.1315997983
 10
1078.7773909193
 20
-1376.7743320292
 10
1071.2402051343
 20
-1375.1008039461
 10
1063.6339050771
 20
-1373.1126671191
 10
1055.9659972474
 20
-1370.8118835993
 10
1048.2440489446
 20
-1368.2007239821
 10
1040.4756807993
 20
-1365.281765167
 10
1032.6685592529
 20
-1362.0578878138
 10
1024.8303889919
 20
-1358.5322735003
 10
1016.9689053441
 20
-1354.7084015821
 10
1009.0918666446
 20
-1350.5900457592
 10
1001.2070465796
 20
-1346.1812703516
 10
993.3222265147
 20
-1341.4864262882
 10
985.4451878152
 20
-1336.5101468134
 10
977.5837041673
 20
-1331.2573429143
 10
969.7455339063
 20
-1325.733198474
 10
961.93841236
 20
-1319.9431651562
 10
954.1700442146
 20
-1313.8929570248
 10
946.4480959118
 20
-1307.5885449048
 10
938.7801880821
 20
-1301.0361504897
 10
931.1738880249
 20
-1294.2422402017
 10
923.6367022399
 20
-1287.2135188101
 10
916.1760690197
 20
-1279.9569228144
 10
908.7993511084
 20
-1272.4796135986
 10
901.513828436
 20
-1264.7889703642
 10
894.3266909338
 20
-1256.8925828475
 10
887.2450314388
 20
-1248.7982438298
 10
880.2758386939
 20
-1240.5139414464
 10
873.425990451
 20
-1232.0478513035
 10
866.7022466834
 20
-1223.40832841
 10
860.1112429142
 20
-1214.6038989319
 10
853.6594836686
 20
-1205.6432517782
 10
847.353336054
 20
-1196.5352300258
 10
841.1990234766
 20
-1187.2888221925
 10
835.2026195
 20
-1177.9131533665
 10
829.3700418511
 20
-1168.417476201
 10
823.7070465796
 20
-1158.811161783
 10
818.2192223783
 20
-1149.1036903849
 10
812.9119850671
 20
-1139.3046421091
 10
807.7905722485
 20
-1129.4236874331
 10
802.8600381386
 20
-1119.4705776663
 10
798.1252485793
 20
-1109.4551353264
 10
793.5908762363
 20
-1099.3872444458
 10
789.2613959876
 20
-1089.2768408172
 10
785.1410805075
 20
-1079.1339021884
 10
781.23399605
 20
-1068.9684384153
 10
777.5439984357
 20
-1058.7904815833
 10
774.0747292467
 20
-1048.610076107
 10
770.8296122329
 20
-1038.4372688175
 10
767.811849933
 20
-1028.2820990474
 10
765.0244205141
 20
-1018.1545887232
 10
762.4700748324
 20
-1008.064732475
 10
760.1513337188
 20
-998.0224877727
 10
758.0704854907
 20
-988.0377650993
 10
756.2295836942
 20
-978.1204181708
 10
754.6304450771
 20
-968.2802342111
 10
753.2746477961
 20
-958.5269242938
 10
752.1635298595
 20
-948.8701137583
 10
751.2981878065
 20
-939.3193327107
 10
750.6794756253
 20
-929.8840066188
 10
750.30800391
 20
-920.5734470104
 10
750.1841392584
 20
-911.3968422836
  0
LWPOLYLINE
  5
115
330
1F
100
AcDbEntity
  8
0
  6
Continuous
 62
     7
370
    25
100
AcDbPolyline
 90
       23
 70
   128
 43
0.0
 10
1226.652910559
 20
-1058.9783964382
 10
1223.1207525024
 20
-1054.9013172719
 10
1216.1515597575
 20
-1046.6170148885
 10
1209.3017115147
 20
-1038.1509247456
 10
1202.577967747
 20
-1029.5114018521
 10
1195.9869639778
 20
-1020.706972374
 10
1189.5352047322
 20
-1011.7463252203
 10
1183.2290571176
 20
-1002.6383034679
 10
1177.0747445402
 20
-993.3918956346
 10
1171.0783405637
 20
-984.0162268086
 10
1165.2457629147
 20
-974.5205496431
 10
1159.5827676432
 20
-964.9142352251
 10
1154.0949434419
 20
-955.206763827
 10
1148.7877061308
 20
-945.4077155512
 10
1143.6662933121
 20
-935.5267608752
 10
1138.7357592022
 20
-925.5736511085
 10
1134.0009696429
 20
-915.5582087685
 10
1129.4665972999
 20
-905.4903178879
 10
1125.1371170512
 20
-895.3799142593
 10
1121.0168015711
 20
-885.2369756305
 10
1117.1097171136
 20
-875.0715118574
 10
1113.4197194993
 20
-864.8935550254
 10
1111.6369036639
 20
-859.7432412682
  0
LWPOLYLINE
  5
116
330
1F
100
AcDbEntity
  8
0
  6
Continuous
 62
     7
370
    25
100
AcDbPolyline
 90
       24
 70
   128
 43
0.0
 10
1136.0476864467
 20
-507.9804343363
 10
1140.946092348
 20
-505.4273763833
 10
1147.227449461
 20
-502.5095989972
 10
1153.6724594939
 20
-499.9020533049
 10
1160.2755669281
 20
-497.6069869785
 10
1167.0310799674
 20
-495.6263783366
 10
1173.9331754437
 20
-493.9619346391
 10
1180.9759038366
 20
-492.6150906158
 10
1188.1531944019
 20
-491.5870072294
 10
1195.4588604046
 20
-490.878570675
 10
1202.8866044516
 20
-490.4903916161
 10
1210.4300239199
 20
-490.4228046582
 10
1218.082616476
 20
-490.6758680605
 10
1225.8377856804
 20
-491.2493636854
 10
1233.6888466738
 20
-492.1427971868
 10
1241.6290319394
 20
-493.3553984363
 10
1249.6514971364
 20
-494.8861221865
 10
1257.7493269997
 20
-496.7336489728
 10
1265.9155413008
 20
-498.89638625
 10
1274.1431008647
 20
-501.3724697655
 10
1282.4249136375
 20
-504.1597651662
 10
1290.7538407998
 20
-507.2558698381
 10
1299.12270292
 20
-510.6581149777
 10
1299.7011308556
 20
-510.9039540355
  0
ARC
  5
117
330
1F
100
AcDbEntity
  8
0
  6
Continuous
 62
     7
370
    25
100
AcDbCircle
 10
1150.5906682934
 20
-853.4131025546
 30
0.0
 40
373.6194017235438
100
AcDbArc
 50
57.36992055
 51
64.6000691423
  0
LWPOLYLINE
  5
118
330
1F
100
AcDbEntity
  8
0
  6
Continuous
 62
     7
370
    25
100
AcDbPolyline
 90
       79
 70
   128
 43
0.0
 10
1360.3462236105
 20
-544.1878779602
 10
1366.6412491432
 20
-548.4910642075
 10
1375.0428323664
 20
-554.4858728071
 10
1383.4116944867
 20
-560.7461101998
 10
1391.7406216489
 20
-567.2663801391
 10
1400.0224344218
 20
-574.0410622335
 10
1408.2499939857
 20
-581.0643167914
 10
1416.4162082868
 20
-588.3300898547
 10
1424.5140381501
 20
-595.8321184178
 10
1432.5365033471
 20
-603.5639358252
 10
1440.4766886127
 20
-611.5188773468
 10
1448.3277496061
 20
-619.690085922
 10
1456.0829188104
 20
-628.0705180708
 10
1463.7355113665
 20
-636.652949965
 10
1471.2789308349
 20
-645.4299836552
 10
1478.7066748818
 20
-654.3940534477
 10
1486.0123408845
 20
-663.537432426
 10
1493.1896314499
 20
-672.8522391113
 10
1500.2323598427
 20
-682.3304442562
 10
1507.134455319
 20
-691.9638777659
 10
1513.8899683583
 20
-701.7442357407
 10
1520.4930757926
 20
-711.6630876338
 10
1526.9380858254
 20
-721.7118835185
 10
1533.2194429384
 20
-731.8819614578
 10
1539.33173268
 20
-742.1645549712
 10
1545.2696863326
 20
-752.5508005912
 10
1551.0281854539
 20
-763.0317455033
 10
1556.6022662897
 20
-773.5983552636
 10
1561.9871240514
 20
-784.2415215862
 10
1567.1781170589
 20
-794.952070194
 10
1572.1707707408
 20
-805.7207687278
 10
1576.9607814919
 20
-816.5383347033
 10
1581.5440203824
 20
-827.3954435135
 10
1585.9165367176
 20
-838.2827364658
 10
1590.0745614428
 20
-849.1908288493
 10
1594.0145103926
 20
-860.1103180242
 10
1597.7329873799
 20
-871.0317915267
 10
1601.2267871239
 20
-881.9458351828
 10
1604.4928980128
 20
-892.8430412228
 10
1607.5285046996
 20
-903.7140163907
 10
1610.3309905292
 20
-914.5493900413
 10
1612.8979397938
 20
-925.3398222176
 10
1615.2271398149
 20
-936.0760117013
 10
1617.3165828512
 20
-946.7487040308
 10
1619.1644678289
 20
-957.3486994783
 10
1620.769201894
 20
-967.8668609797
 10
1622.1294017858
 20
-978.2941220108
 10
1623.243895029
 20
-988.6214944023
 10
1624.1117209443
 20
-998.8400760881
 10
1624.7321314764
 20
-1008.9410587778
 10
1625.1045918393
 20
-1018.9157355502
 10
1625.2287809767
 20
-1028.7555083581
 10
1625.1045918393
 20
-1038.45189544
 10
1624.7321314764
 20
-1047.996538631
 10
1624.1117209442
 20
-1057.3812105674
 10
1623.243895029
 20
-1066.5978217789
 10
1622.1294017858
 20
-1075.6384276615
 10
1620.769201894
 20
-1084.4952353255
 10
1619.1644678289
 20
-1093.1606103129
 10
1617.3165828512
 20
-1101.6270831785
 10
1615.2271398149
 20
-1109.8873559281
 10
1612.8979397938
 20
-1117.9343083094
 10
1610.3309905292
 20
-1125.7610039498
 10
1607.5285046996
 20
-1133.360696335
 10
1604.4928980128
 20
-1140.7268346248
 10
1601.2267871239
 20
-1147.8530692998
 10
1597.7329873799
 20
-1154.7332576345
 10
1594.0145103926
 20
-1161.3614689922
 10
1590.0745614428
 20
-1167.7319899372
 10
1585.9165367176
 20
-1173.8393291598
 10
1581.5440203824
 20
-1179.6782222097
 10
1576.9607814919
 20
-1185.2436360338
 10
1572.1707707408
 20
-1190.5307733147
 10
1567.1781170589
 20
-1195.5350766059
 10
1561.9871240514
 20
-1200.2522322603
 10
1556.6022662897
 20
-1204.6781741484
 10
1551.0281854539
 20
-1208.8090871635
 10
1545.2696863326
 20
-1212.6414105099
 10
1543.4792926457
 20
-1213.7491816211
  0
SPLINE
  5
119
330
1F
100
AcDbEntity
  8
0
  6
Continuous
 62
     7
370
    25
100
AcDbSpline
210
0.0
220
0.0
230
1.0
 70
     8
 71
     3
 72
    12
 73
     8
 74
     0
 42
0.00000001
 43
0.00000001
 40
0.0
 40
0.0
 40
0.0
 40
0.0
 40
0.2472357719046707
 40
0.494474533219536
 40
0.7415321335399834
 40
0.9877941323823524
 40
1.0
 40
1.0
 40
1.0
 40
1.0
 10
1351.961950854136
 20
-554.0753656849092
 30
0.0
 10
1351.203992527682
 20
-553.881897707041
 30
0.0
 10
1349.688066710047
 20
-553.4949594120193
 30
0.0
 10
1347.849933991505
 20
-552.3898726460493
 30
0.0
 10
1346.713444588279
 20
-551.0581534108971
 30
0.0
 10
1346.227954315362
 20
-550.0314340934686
 30
0.0
 10
1346.358732380832
 20
-549.5414523408065
 30
0.0
 10
1346.364908234629
 20
-549.518313478363
 30
0.0
  0
SPLINE
  5
11A
330
1F
100
AcDbEntity
  8
0
  6
Continuous
 62
     7
370
    25
100
AcDbSpline
210
0.0
220
0.0
230
1.0
 70
     8
 71
     3
 72
    13
 73
     9
 74
     0
 42
0.00000001
 43
0.00000001
 40
0.0
 40
0.0
 40
0.0
 40
0.0
 40
0.1220887980741412
 40
0.3123646026288328
 40
0.5018683926275326
 40
0.6911657544853181
 40
0.8809924932061264
 40
1.0
 40
1.0
 40
1.0
 40
1.0
 10
1360.254005324035
 20
-550.3462801258565
 30
0.0
 10
1360.258875961536
 20
-550.6618850287424
 30
0.0
 10
1360.271337504051
 20
-551.4693612397688
 30
0.0
 10
1359.397295493777
 20
-552.6307568837965
 30
0.0
 10
1357.845101467092
 20
-553.6478010296344
 30
0.0
 10
1355.764853648196
 20
-554.2312562297238
 30
0.0
 10
1353.706376448211
 20
-554.3396223376423
 30
0.0
 10
1352.447176383478
 20
-554.1488707255597
 30
0.0
 10
1351.961950854136
 20
-554.0753656849092
 30
0.0
  0
SPLINE
  5
11B
330
1F
100
AcDbEntity
  8
0
  6
Continuous
 62
     7
370
    25
100
AcDbSpline
210
0.0
220
0.0
230
1.0
 70
     8
 71
     3
 72
    13
 73
     9
 74
     0
 42
0.00000001
 43
0.00000001
 40
0.0
 40
0.0
 40
0.0
 40
0.0
 40
0.1904727231656637
 40
0.3809300257488292
 40
0.5717991152436895
 40
0.7633706874174847
 40
0.9554601580614194
 40
1.0
 40
1.0
 40
1.0
 40
1.0
 10
1305.204967800464
 20
-524.8690144906016
 30
0.0
 10
1304.418262904745
 20
-524.9343596345861
 30
0.0
 10
1302.844916804564
 20
-525.0650446322433
 30
0.0
 10
1300.562933285493
 20
-524.7401963461186
 30
0.0
 10
1298.642694833103
 20
-524.0711217453415
 30
0.0
 10
1297.367554062927
 20
-523.0947800160051
 30
0.0
 10
1296.783161388291
 20
-522.2298274226733
 30
0.0
 10
1296.898406936771
 20
-521.7317408734485
 30
0.0
 10
1296.920099171167
 20
-521.6379879231816
 30
0.0
  0
SPLINE
  5
11C
330
1F
100
AcDbEntity
  8
0
  6
Continuous
 62
     7
370
    25
100
AcDbSpline
210
0.0
220
0.0
230
1.0
 70
     8
 71
     3
 72
    12
 73
     8
 74
     0
 42
0.00000001
 43
0.00000001
 40
0.0
 40
0.0
 40
0.0
 40
0.0
 40
0.1120864368873733
 40
0.3578501594661414
 40
0.6029619964136674
 40
0.8475630610558731
 40
1.0
 40
1.0
 40
1.0
 40
1.0
 10
1310.749479070829
 20
-521.088338051628
 30
0.0
 10
1310.771409584212
 20
-521.2756157237029
 30
0.0
 10
1310.841425528417
 20
-521.873523433837
 30
0.0
 10
1310.109552337089
 20
-522.8787321078298
 30
0.0
 10
1308.673140097115
 20
-523.9136331035679
 30
0.0
 10
1306.908573353083
 20
-524.5801135689569
 30
0.0
 10
1305.677587014752
 20
-524.7888667554732
 30
0.0
 10
1305.204967800464
 20
-524.8690144906016
 30
0.0
  0
LWPOLYLINE
  5
11D
330
1F
100
AcDbEntity
  8
0
  6
Continuous
 62
     7
370
    25
100
AcDbPolyline
 90
       29
 70
   128
 43
0.0
 10
1039.3908127637
 20
-723.9761100941
 10
1040.36813469
 20
-724.6835894241
 10
1041.0482486075
 20
-725.4988761773
 10
1041.3970507646
 20
-726.3810884718
 10
1041.3970507646
 20
-727.2859884992
 10
1041.0482486075
 20
-728.1682007937
 10
1040.36813469
 20
-728.983487547
 10
1039.3908127637
 20
-729.6909668769
 10
1038.165289831
 20
-730.2551628157
 10
1036.7530187291
 20
-730.6477842231
 10
1035.2248166281
 20
-730.8491434224
 10
1033.6573139627
 20
-730.8491434224
 10
1032.1291118617
 20
-730.6477842231
 10
1030.7168407598
 20
-730.2551628157
 10
1029.4913178271
 20
-729.6909668769
 10
1028.5139959008
 20
-728.983487547
 10
1027.8338819832
 20
-728.1682007937
 10
1027.4850798261
 20
-727.2859884992
 10
1027.4850798261
 20
-726.3810884718
 10
1027.8338819832
 20
-725.4988761773
 10
1028.5139959008
 20
-724.6835894241
 10
1029.4913178271
 20
-723.9761100941
 10
1030.7168407598
 20
-723.4119141553
 10
1032.1291118617
 20
-723.0192927479
 10
1033.6573139627
 20
-722.8179335487
 10
1035.2248166281
 20
-722.8179335487
 10
1036.7530187291
 20
-723.0192927479
 10
1038.165289831
 20
-723.4119141553
 10
1039.3908127637
 20
-723.9761100941
  0
LWPOLYLINE
  5
11E
330
1F
100
AcDbEntity
  8
0
  6
Continuous
 62
     7
370
    25
100
AcDbPolyline
 90
       24
 70
   128
 43
0.0
 10
1037.9765992013
 20
-724.792518206
 10
1038.7993676455
 20
-725.4188654558
 10
1039.2989007424
 20
-726.1501325326
 10
1039.4381504072
 20
-726.9320847025
 10
1039.2067891295
 20
-727.7067281503
 10
1038.6219759167
 20
-728.4166111152
 10
1037.7270836895
 20
-729.0090848253
 10
1036.5884825105
 20
-729.4402082159
 10
1035.2906172205
 20
-729.6780068372
 10
1033.9297445507
 20
-729.7048442535
 10
1032.6067942013
 20
-729.5187300563
 10
1031.4198833478
 20
-729.1334674843
 10
1030.4570397383
 20
-728.5776296998
 10
1029.7896730787
 20
-727.8924406488
 10
1029.4672789011
 20
-727.1287176684
 10
1029.5137677068
 20
-726.3431025984
 10
1029.9256916338
 20
-725.5938609145
 10
1030.6725001687
 20
-724.9365604449
 10
1031.6988059391
 20
-724.4199501585
 10
1032.928492541
 20
-724.0823446769
 10
1034.2703597445
 20
-723.9487826542
 10
1035.6248873977
 20
-724.0291697746
 10
1036.8916163813
 20
-724.3175440932
 10
1037.9765992013
 20
-724.792518206
  0
LWPOLYLINE
  5
11F
330
1F
100
AcDbEntity
  8
0
  6
Continuous
 62
     7
370
    25
100
AcDbPolyline
 90
       29
 70
   128
 43
0.0
 10
979.993843144
 20
-701.1166829631
 10
979.0165212177
 20
-700.4092036332
 10
978.3364073002
 20
-699.5939168799
 10
977.9876051431
 20
-698.7117045854
 10
977.9876051431
 20
-697.806804558
 10
978.3364073002
 20
-696.9245922635
 10
979.0165212177
 20
-696.1093055103
 10
979.993843144
 20
-695.4018261803
 10
981.2193660767
 20
-694.8376302415
 10
982.6316371786
 20
-694.4450088341
 10
984.1598392796
 20
-694.2436496349
 10
985.727341945
 20
-694.2436496349
 10
987.255544046
 20
-694.4450088341
 10
988.6678151479
 20
-694.8376302415
 10
989.8933380806
 20
-695.4018261803
 10
990.8706600069
 20
-696.1093055103
 10
991.5507739245
 20
-696.9245922635
 10
991.8995760816
 20
-697.806804558
 10
991.8995760816
 20
-698.7117045854
 10
991.5507739245
 20
-699.5939168799
 10
990.8706600069
 20
-700.4092036332
 10
989.8933380806
 20
-701.1166829631
 10
988.6678151479
 20
-701.6808789019
 10
987.255544046
 20
-702.0735003093
 10
985.727341945
 20
-702.2748595086
 10
984.1598392796
 20
-702.2748595086
 10
982.6316371786
 20
-702.0735003093
 10
981.2193660767
 20
-701.6808789019
 10
979.993843144
 20
-701.1166829631
  0
LWPOLYLINE
  5
120
330
1F
100
AcDbEntity
  8
0
  6
Continuous
 62
     7
370
    25
100
AcDbPolyline
 90
       24
 70
   128
 43
0.0
 10
981.4080567064
 20
-700.3002748513
 10
980.5852882622
 20
-699.6739276014
 10
980.0857551653
 20
-698.9426605247
 10
979.9465055005
 20
-698.1607083548
 10
980.1778667783
 20
-697.386064907
 10
980.7626799911
 20
-696.676181942
 10
981.6575722182
 20
-696.0837082319
 10
982.7961733972
 20
-695.6525848414
 10
984.0940386872
 20
-695.41478622
 10
985.454911357
 20
-695.3879488038
 10
986.7778617064
 20
-695.5740630009
 10
987.9647725599
 20
-695.959325573
 10
988.9276161694
 20
-696.5151633574
 10
989.594982829
 20
-697.2003524085
 10
989.9173770066
 20
-697.9640753889
 10
989.8708882009
 20
-698.7496904589
 10
989.4589642739
 20
-699.4989321428
 10
988.712155739
 20
-700.1562326123
 10
987.6858499686
 20
-700.6728428987
 10
986.4561633667
 20
-701.0104483803
 10
985.1142961633
 20
-701.144010403
 10
983.75976851
 20
-701.0636232826
 10
982.4930395264
 20
-700.775248964
 10
981.4080567064
 20
-700.3002748513
  0
LWPOLYLINE
  5
121
330
1F
100
AcDbEntity
  8
0
  6
Continuous
 62
     7
370
    25
100
AcDbPolyline
 90
       29
 70
   128
 43
0.0
 10
1348.3964761422
 20
-545.5909376609
 10
1347.4191542159
 20
-544.883458331
 10
1346.7390402984
 20
-544.0681715777
 10
1346.3902381413
 20
-543.1859592832
 10
1346.3902381413
 20
-542.2810592558
 10
1346.7390402984
 20
-541.3988469613
 10
1347.4191542159
 20
-540.583560208
 10
1348.3964761422
 20
-539.8760808781
 10
1349.6219990749
 20
-539.3118849393
 10
1351.0342701768
 20
-538.9192635319
 10
1352.5624722778
 20
-538.7179043327
 10
1354.1299749432
 20
-538.7179043327
 10
1355.6581770442
 20
-538.9192635319
 10
1357.0704481461
 20
-539.3118849393
 10
1358.2959710788
 20
-539.8760808781
 10
1359.2732930051
 20
-540.583560208
 10
1359.9534069227
 20
-541.3988469613
 10
1360.3022090798
 20
-542.2810592558
 10
1360.3022090798
 20
-543.1859592832
 10
1359.9534069227
 20
-544.0681715777
 10
1359.2732930051
 20
-544.883458331
 10
1358.2959710788
 20
-545.5909376609
 10
1357.0704481461
 20
-546.1551335997
 10
1355.6581770442
 20
-546.5477550071
 10
1354.1299749432
 20
-546.7491142063
 10
1352.5624722778
 20
-546.7491142063
 10
1351.0342701768
 20
-546.5477550071
 10
1349.6219990749
 20
-546.1551335997
 10
1348.3964761422
 20
-545.5909376609
  0
LWPOLYLINE
  5
122
330
1F
100
AcDbEntity
  8
0
  6
Continuous
 62
     7
370
    25
100
AcDbPolyline
 90
       24
 70
   128
 43
0.0
 10
1349.8106897046
 20
-544.7745295491
 10
1348.9879212604
 20
-544.1481822992
 10
1348.4883881635
 20
-543.4169152225
 10
1348.3491384987
 20
-542.6349630526
 10
1348.5804997764
 20
-541.8603196047
 10
1349.1653129892
 20
-541.1504366398
 10
1350.0602052164
 20
-540.5579629297
 10
1351.1988063954
 20
-540.1268395392
 10
1352.4966716854
 20
-539.8890409178
 10
1353.8575443552
 20
-539.8622035015
 10
1355.1804947046
 20
-540.0483176987
 10
1356.3674055581
 20
-540.4335802708
 10
1357.3302491676
 20
-540.9894180552
 10
1357.9976158272
 20
-541.6746071063
 10
1358.3200100048
 20
-542.4383300866
 10
1358.2735211991
 20
-543.2239451567
 10
1357.8615972721
 20
-543.9731868405
 10
1357.1147887372
 20
-544.6304873101
 10
1356.0884829668
 20
-545.1470975965
 10
1354.8587963649
 20
-545.4847030781
 10
1353.5169291614
 20
-545.6182651008
 10
1352.1624015082
 20
-545.5378779804
 10
1350.8956725246
 20
-545.2495036618
 10
1349.8106897046
 20
-544.7745295491
  0
LWPOLYLINE
  5
123
330
1F
100
AcDbEntity
  8
0
  6
Continuous
 62
     7
370
    25
100
AcDbPolyline
 90
       29
 70
   128
 43
0.0
 10
1308.7984963958
 20
-511.3017969643
 10
1309.7758183221
 20
-512.0092762943
 10
1310.4559322396
 20
-512.8245630475
 10
1310.8047343967
 20
-513.706775342
 10
1310.8047343967
 20
-514.6116753694
 10
1310.4559322396
 20
-515.4938876639
 10
1309.7758183221
 20
-516.3091744172
 10
1308.7984963958
 20
-517.0166537471
 10
1307.5729734631
 20
-517.5808496859
 10
1306.1607023611
 20
-517.9734710933
 10
1304.6325002602
 20
-518.1748302926
 10
1303.0649975947
 20
-518.1748302926
 10
1301.5367954938
 20
-517.9734710933
 10
1300.1245243919
 20
-517.5808496859
 10
1298.8990014592
 20
-517.0166537471
 10
1297.9216795329
 20
-516.3091744172
 10
1297.2415656153
 20
-515.4938876639
 10
1296.8927634582
 20
-514.6116753694
 10
1296.8927634582
 20
-513.706775342
 10
1297.2415656153
 20
-512.8245630475
 10
1297.9216795329
 20
-512.0092762943
 10
1298.8990014592
 20
-511.3017969643
 10
1300.1245243919
 20
-510.7376010255
 10
1301.5367954938
 20
-510.3449796181
 10
1303.0649975947
 20
-510.1436204189
 10
1304.6325002602
 20
-510.1436204189
 10
1306.1607023611
 20
-510.3449796181
 10
1307.5729734631
 20
-510.7376010255
 10
1308.7984963958
 20
-511.3017969643
  0
LWPOLYLINE
  5
124
330
1F
100
AcDbEntity
  8
0
  6
Continuous
 62
     7
370
    25
100
AcDbPolyline
 90
       24
 70
   128
 43
0.0
 10
1307.3842828334
 20
-512.1182050762
 10
1308.2070512776
 20
-512.744552326
 10
1308.7065843744
 20
-513.4758194027
 10
1308.8458340393
 20
-514.2577715726
 10
1308.6144727615
 20
-515.0324150205
 10
1308.0296595487
 20
-515.7422979854
 10
1307.1347673215
 20
-516.3347716955
 10
1305.9961661426
 20
-516.765895086
 10
1304.6983008526
 20
-517.0036937074
 10
1303.3374281827
 20
-517.0305311237
 10
1302.0144778334
 20
-516.8444169265
 10
1300.8275669799
 20
-516.4591543544
 10
1299.8647233704
 20
-515.90331657
 10
1299.1973567108
 20
-515.2181275189
 10
1298.8749625332
 20
-514.4544045386
 10
1298.9214513389
 20
-513.6687894685
 10
1299.3333752658
 20
-512.9195477847
 10
1300.0801838008
 20
-512.2622473151
 10
1301.1064895712
 20
-511.7456370287
 10
1302.3361761731
 20
-511.4080315471
 10
1303.6780433765
 20
-511.2744695244
 10
1305.0325710298
 20
-511.3548566448
 10
1306.2993000133
 20
-511.6432309634
 10
1307.3842828334
 20
-512.1182050762
  0
LWPOLYLINE
  5
125
330
1F
100
AcDbEntity
  8
0
  6
Continuous
 62
     1
370
    25
100
AcDbPolyline
 90
      109
 70
   128
 43
0.0
 10
948.5016087932
 20
-613.8984213067
 10
949.9934065407
 20
-613.0496820405
 10
956.1356952503
 20
-609.8083574028
 10
962.4478811099
 20
-606.8762596368
 10
968.9245230938
 20
-604.2559161743
 10
975.5600384173
 20
-601.9495857187
 10
982.3487073489
 20
-599.9592562982
 10
989.2846781404
 20
-598.2866435518
 10
996.3619720714
 20
-596.9331892511
 10
1003.5744886027
 20
-595.9000600566
 10
1010.9160106348
 20
-595.188146513
 10
1018.3802098673
 20
-594.7980622808
 10
1025.9606522533
 20
-594.7301436078
 10
1033.6508035458
 20
-594.9844490391
 10
1041.4440349304
 20
-595.5607593664
 10
1049.3336287384
 20
-596.4585778176
 10
1057.3127842385
 20
-597.6771304842
 10
1065.3746234978
 20
-599.215366989
 10
1073.5121973113
 20
-601.0719613914
 10
1081.7184911918
 20
-603.2453133301
 10
1089.9864314162
 20
-605.7335494028
 10
1098.3088911229
 20
-608.5345247809
 10
1106.6786964552
 20
-611.6458250586
 10
1115.0886327454
 20
-615.0647683338
 10
1123.5314507329
 20
-618.78840752
 10
1131.9998728139
 20
-622.8135328865
 10
1140.486599314
 20
-627.1366748254
 10
1148.9843147806
 20
-631.7541068423
 10
1157.4856942888
 20
-636.6618487682
 10
1165.9834097555
 20
-641.8556701907
 10
1174.4701362555
 20
-647.3310941004
 10
1182.9385583365
 20
-653.0834007501
 10
1191.3813763241
 20
-659.1076317231
 10
1199.7913126142
 20
-665.3985942073
 10
1208.1611179466
 20
-671.9508654715
 10
1216.4835776533
 20
-678.7587975393
 10
1224.7515178776
 20
-685.8165220582
 10
1232.9578117581
 20
-693.1179553575
 10
1241.0953855717
 20
-700.6568036926
 10
1249.157224831
 20
-708.4265686702
 10
1257.136380331
 20
-716.4205528495
 10
1265.0259741391
 20
-724.6318655159
 10
1272.8192055236
 20
-733.05342862
 10
1280.5093568162
 20
-741.6779828793
 10
1288.0897992022
 20
-750.4980940355
 10
1295.5539984346
 20
-759.5061592626
 10
1302.8955204668
 20
-768.6944137206
 10
1310.1080369981
 20
-778.0549372485
 10
1317.1853309291
 20
-787.5796611916
 10
1324.1213017206
 20
-797.2603753565
 10
1330.9099706521
 20
-807.0887350883
 10
1337.5454859756
 20
-817.0562684631
 10
1344.0221279595
 20
-827.1543835914
 10
1350.3343138191
 20
-837.3743760236
 10
1356.4766025288
 20
-847.7074362537
 10
1362.4436995121
 20
-858.1446573123
 10
1368.2304612059
 20
-868.6770424448
 10
1373.8318994935
 20
-879.2955128666
 10
1379.243186005
 20
-889.9909155882
 10
1384.4596562788
 20
-900.7540313058
 10
1389.4768137825
 20
-911.5755823477
 10
1394.2903337888
 20
-922.4462406716
 10
1398.8960671033
 20
-933.3566359054
 10
1403.2900436414
 20
-944.2973634243
 10
1407.4684758499
 20
-955.2589924575
 10
1411.4277619724
 20
-966.2320742173
 10
1415.1644891535
 20
-977.2071500438
 10
1418.6754363809
 20
-988.1747595583
 10
1421.9575772619
 20
-999.1254488181
 10
1425.0080826319
 20
-1010.0497784654
 10
1427.8243229932
 20
-1020.938331864
 10
1430.4038707817
 20
-1031.7817232166
 10
1432.7445024594
 20
-1042.5706056548
 10
1434.8442004309
 20
-1053.2956792964
 10
1436.7011547826
 20
-1063.9476992614
 10
1438.3137648432
 20
-1074.5174836414
 10
1439.6806405627
 20
-1084.9959214137
 10
1440.8006037114
 20
-1095.3739802955
 10
1441.6726888949
 20
-1105.6427145294
 10
1442.2961443867
 20
-1115.7932725942
 10
1442.6704327759
 20
-1125.8169048355
 10
1442.7952314306
 20
-1135.7049710069
 10
1442.6704327759
 20
-1145.4489477187
 10
1442.2961443867
 20
-1155.0404357841
 10
1441.6726888949
 20
-1164.4711674601
 10
1440.8006037114
 20
-1173.7330135733
 10
1439.6806405627
 20
-1182.8179905277
 10
1438.3137648432
 20
-1191.7182671864
 10
1436.7011547826
 20
-1200.4261716216
 10
1434.8442004308
 20
-1208.9341977283
 10
1432.7445024594
 20
-1217.2350116938
 10
1430.4038707817
 20
-1225.3214583199
 10
1427.8243229932
 20
-1233.1865671904
 10
1425.0080826319
 20
-1240.8235586793
 10
1421.9575772619
 20
-1248.2258497951
 10
1418.6754363809
 20
-1255.3870598551
 10
1415.1644891535
 20
-1262.3010159853
 10
1411.4277619724
 20
-1268.9617584416
 10
1407.4684758499
 20
-1275.3635457471
 10
1403.2900436414
 20
-1281.5008596408
 10
1398.8960671033
 20
-1287.3684098345
 10
1394.2903337888
 20
-1292.961138573
 10
1389.4768137825
 20
-1298.274224994
 10
1384.4596562788
 20
-1303.3030892829
 10
1379.243186005
 20
-1308.0433966215
 10
1373.8318994935
 20
-1312.4910609237
 10
1368.2304612059
 20
-1316.6422483585
 10
1362.4436995121
 20
-1320.4933806539
 10
1357.9683831534
 20
-1323.1924088006
  0
LWPOLYLINE
  5
126
330
1F
100
AcDbEntity
  8
0
  6
Continuous
 62
     1
370
    25
100
AcDbPolyline
 90
      109
 70
   128
 43
0.0
 10
980.3214491809
 20
-595.5292184503
 10
981.8132116941
 20
-594.6804995245
 10
987.9555004037
 20
-591.4391748868
 10
994.2676862633
 20
-588.5070771208
 10
1000.7443282472
 20
-585.8867336583
 10
1007.3798435707
 20
-583.5804032027
 10
1014.1685125023
 20
-581.5900737822
 10
1021.1044832938
 20
-579.9174610358
 10
1028.1817772248
 20
-578.5640067351
 10
1035.3942937561
 20
-577.5308775406
 10
1042.7358157882
 20
-576.818963997
 10
1050.2000150207
 20
-576.4288797648
 10
1057.7804574067
 20
-576.3609610918
 10
1065.4706086992
 20
-576.6152665231
 10
1073.2638400838
 20
-577.1915768504
 10
1081.1534338918
 20
-578.0893953016
 10
1089.1325893919
 20
-579.3079479682
 10
1097.1944286512
 20
-580.846184473
 10
1105.3320024647
 20
-582.7027788754
 10
1113.5382963452
 20
-584.8761308141
 10
1121.8062365696
 20
-587.3643668868
 10
1130.1286962763
 20
-590.1653422649
 10
1138.4985016086
 20
-593.2766425426
 10
1146.9084378988
 20
-596.6955858178
 10
1155.3512558863
 20
-600.419225004
 10
1163.8196779673
 20
-604.4443503705
 10
1172.3064044674
 20
-608.7674923094
 10
1180.804119934
 20
-613.3849243263
 10
1189.3054994422
 20
-618.2926662522
 10
1197.8032149088
 20
-623.4864876747
 10
1206.2899414089
 20
-628.9619115844
 10
1214.7583634899
 20
-634.7142182341
 10
1223.2011814775
 20
-640.7384492071
 10
1231.6111177676
 20
-647.0294116913
 10
1239.9809231
 20
-653.5816829555
 10
1248.3033828067
 20
-660.3896150233
 10
1256.571323031
 20
-667.4473395422
 10
1264.7776169115
 20
-674.7487728415
 10
1272.9151907251
 20
-682.2876211766
 10
1280.9770299844
 20
-690.0573861541
 10
1288.9561854844
 20
-698.0513703335
 10
1296.8457792925
 20
-706.2626829999
 10
1304.639010677
 20
-714.684246104
 10
1312.3291619696
 20
-723.3088003633
 10
1319.9096043556
 20
-732.1289115195
 10
1327.373803588
 20
-741.1369767466
 10
1334.7153256202
 20
-750.3252312045
 10
1341.9278421515
 20
-759.6857547324
 10
1349.0051360825
 20
-769.2104786756
 10
1355.941106874
 20
-778.8911928405
 10
1362.7297758055
 20
-788.7195525723
 10
1369.365291129
 20
-798.6870859471
 10
1375.8419331129
 20
-808.7852010754
 10
1382.1541189725
 20
-819.0051935076
 10
1388.2964076821
 20
-829.3382537377
 10
1394.2635046655
 20
-839.7754747962
 10
1400.0502663593
 20
-850.3078599288
 10
1405.6517046469
 20
-860.9263303505
 10
1411.0629911584
 20
-871.6217330722
 10
1416.2794614322
 20
-882.3848487898
 10
1421.2966189359
 20
-893.2063998317
 10
1426.1101389422
 20
-904.0770581555
 10
1430.7158722567
 20
-914.9874533894
 10
1435.1098487948
 20
-925.9281809083
 10
1439.2882810033
 20
-936.8898099415
 10
1443.2475671258
 20
-947.8628917013
 10
1446.9842943069
 20
-958.8379675278
 10
1450.4952415343
 20
-969.8055770423
 10
1453.7773824153
 20
-980.7562663021
 10
1456.8278877853
 20
-991.6805959494
 10
1459.6441281466
 20
-1002.569149348
 10
1462.2236759351
 20
-1013.4125407006
 10
1464.5643076128
 20
-1024.2014231388
 10
1466.6640055842
 20
-1034.9264967804
 10
1468.520959936
 20
-1045.5785167454
 10
1470.1335699966
 20
-1056.1483011253
 10
1471.5004457161
 20
-1066.6267388977
 10
1472.6204088648
 20
-1077.0047977795
 10
1473.4924940483
 20
-1087.2735320134
 10
1474.1159495401
 20
-1097.4240900782
 10
1474.4902379293
 20
-1107.4477223195
 10
1474.615036584
 20
-1117.3357884909
 10
1474.4902379293
 20
-1127.0797652026
 10
1474.1159495401
 20
-1136.6712532681
 10
1473.4924940483
 20
-1146.1019849441
 10
1472.6204088648
 20
-1155.3638310573
 10
1471.5004457161
 20
-1164.4488080117
 10
1470.1335699966
 20
-1173.3490846703
 10
1468.520959936
 20
-1182.0569891056
 10
1466.6640055842
 20
-1190.5650152122
 10
1464.5643076128
 20
-1198.8658291778
 10
1462.2236759351
 20
-1206.9522758039
 10
1459.6441281466
 20
-1214.8173846744
 10
1456.8278877853
 20
-1222.4543761633
 10
1453.7773824153
 20
-1229.8566672791
 10
1450.4952415343
 20
-1237.0178773391
 10
1446.9842943069
 20
-1243.9318334693
 10
1443.2475671258
 20
-1250.5925759256
 10
1439.2882810033
 20
-1256.9943632311
 10
1435.1098487948
 20
-1263.1316771247
 10
1430.7158722567
 20
-1268.9992273185
 10
1426.1101389422
 20
-1274.591956057
 10
1421.2966189359
 20
-1279.905042478
 10
1416.2794614322
 20
-1284.9339067669
 10
1411.0629911584
 20
-1289.6742141054
 10
1405.6517046469
 20
-1294.1218784077
 10
1400.0502663593
 20
-1298.2730658425
 10
1394.2635046655
 20
-1302.1241981379
 10
1389.7881701954
 20
-1304.8232367401
  0
ENDSEC
  0
SECTION
  2
OBJECTS
  0
DICTIONARY
  5
C
330
0
100
AcDbDictionary
281
     1
  3
ACAD_GROUP
350
D
  3
ACAD_LAYOUT
350
1A
  3
ACAD_MLINESTYLE
350
17
  3
ACAD_PLOTSETTINGS
350
19
  3
ACAD_PLOTSTYLENAME
350
E
  3
ACAD_SCALELIST
350
47
  3
DWGPROPS
350
127
  0
DICTIONARY
  5
D
102
{ACAD_REACTORS
330
C
102
}
330
C
100
AcDbDictionary
281
     1
  0
DICTIONARY
  5
1A
102
{ACAD_REACTORS
330
C
102
}
330
C
100
AcDbDictionary
281
     1
  3
Layout1
350
1E
  3
Layout2
350
26
  3
Model
350
22
  0
DICTIONARY
  5
17
102
{ACAD_REACTORS
330
C
102
}
330
C
100
AcDbDictionary
281
     1
  3
Standard
350
18
  0
DICTIONARY
  5
19
102
{ACAD_REACTORS
330
C
102
}
330
C
100
AcDbDictionary
281
     1
  0
ACDBDICTIONARYWDFLT
  5
E
102
{ACAD_REACTORS
330
C
102
}
330
C
100
AcDbDictionary
281
     1
  3
Normal
350
F
100
AcDbDictionaryWithDefault
340
F
  0
DICTIONARY
  5
47
102
{ACAD_REACTORS
330
C
102
}
330
C
100
AcDbDictionary
281
     1
  3
A0
350
48
  3
A1
350
49
  3
A2
350
4A
  3
A3
350
4B
  3
A4
350
4C
  3
A5
350
4D
  3
A6
350
4E
  3
A7
350
4F
  3
A8
350
50
  3
A9
350
51
  3
B0
350
52
  3
B1
350
53
  3
B2
350
54
  3
B3
350
55
  3
B4
350
56
  3
B5
350
57
  3
B6
350
58
  3
B7
350
59
  3
B8
350
5A
  3
B9
350
5B
  3
C0
350
5C
  3
C1
350
5D
  3
C2
350
5E
  3
C3
350
5F
  3
C4
350
60
  3
C5
350
61
  3
C6
350
62
  3
C7
350
63
  3
C8
350
64
  3
C9
350
65
  3
D0
350
66
  3
D1
350
67
  3
D2
350
68
  0
XRECORD
  5
127
102
{ACAD_REACTORS
330
C
102
}
330
C
100
AcDbXrecord
280
     1
  1
DWGPROPS COOKIE
  2

  3

  4

  6

  7

  8
b.kav
  9

300
=
301
=
302
=
303
=
304
=
305
=
306
=
307
=
308
=
309
=
 40
0.0
 41
2459741.476745023
 42
2459741.476745208
  1

 90
        0
  0
LAYOUT
  5
1E
102
{ACAD_REACTORS
330
1A
102
}
330
1A
100
AcDbPlotSettings
  1

  2
none_device
  4

  6

 40
0.0
 41
0.0
 42
0.0
 43
0.0
 44
0.0
 45
0.0
 46
0.0
 47
0.0
 48
0.0
 49
0.0
140
0.0
141
0.0
142
1.0
143
1.0
 70
   688
 72
     1
 73
     0
 74
     5
  7

 75
    16
147
1.0
148
0.0
149
0.0
100
AcDbLayout
  1
Layout1
 70
     1
 71
     1
 10
0.0
 20
0.0
 11
420.0
 21
297.0
 12
0.0
 22
0.0
 32
0.0
 14
1.0000000000E+20
 24
1.0000000000E+20
 34
1.0000000000E+20
 15
-1.0000000000E+20
 25
-1.0000000000E+20
 35
-1.0000000000E+20
146
0.0
 13
0.0
 23
0.0
 33
0.0
 16
1.0
 26
0.0
 36
0.0
 17
0.0
 27
1.0
 37
0.0
 76
     0
330
1B
  0
LAYOUT
  5
26
102
{ACAD_REACTORS
330
1A
102
}
330
1A
100
AcDbPlotSettings
  1

  2
none_device
  4

  6

 40
0.0
 41
0.0
 42
0.0
 43
0.0
 44
0.0
 45
0.0
 46
0.0
 47
0.0
 48
0.0
 49
0.0
140
0.0
141
0.0
142
1.0
143
1.0
 70
   688
 72
     1
 73
     0
 74
     5
  7

 75
    16
147
1.0
148
0.0
149
0.0
100
AcDbLayout
  1
Layout2
 70
     1
 71
     2
 10
0.0
 20
0.0
 11
0.0
 21
0.0
 12
0.0
 22
0.0
 32
0.0
 14
0.0
 24
0.0
 34
0.0
 15
0.0
 25
0.0
 35
0.0
146
0.0
 13
0.0
 23
0.0
 33
0.0
 16
1.0
 26
0.0
 36
0.0
 17
0.0
 27
1.0
 37
0.0
 76
     0
330
23
  0
LAYOUT
  5
22
102
{ACAD_REACTORS
330
1A
102
}
330
1A
100
AcDbPlotSettings
  1

  2
none_device
  4
Letter_(8.50_x_11.00_Inches)
  6

 40
6.35
 41
6.35
 42
6.35000508
 43
6.35000508
 44
215.9
 45
279.4
 46
0.0
 47
0.0
 48
0.0
 49
0.0
140
0.0
141
0.0
142
1.0
143
1.0
 70
  1712
 72
     1
 73
     0
 74
     0
  7

 75
     0
147
1.0
148
0.0
149
0.0
100
AcDbLayout
  1
Model
 70
     1
 71
     0
 10
0.0
 20
0.0
 11
279.4
 21
215.9
 12
0.0
 22
0.0
 32
0.0
 14
0.0
 24
0.0
 34
0.0
 15
279.4
 25
215.9
 35
0.0
146
0.0
 13
0.0
 23
0.0
 33
0.0
 16
1.0
 26
0.0
 36
0.0
 17
0.0
 27
1.0
 37
0.0
 76
     0
330
1F
331
29
  0
MLINESTYLE
  5
18
102
{ACAD_REACTORS
330
17
102
}
330
17
100
AcDbMlineStyle
  2
Standard
 70
     0
  3

 62
   256
 51
90.0
 52
90.0
 71
     2
 49
0.5
 62
   256
  6
BYLAYER
 49
-0.5
 62
   256
  6
BYLAYER
  0
ACDBPLACEHOLDER
  5
F
102
{ACAD_REACTORS
330
E
102
}
330
E
  0
SCALE
  5
48
102
{ACAD_REACTORS
330
47
102
}
330
47
100
AcDbScale
 70
     0
300
1:1
140
1.0
141
1.0
290
     1
  0
SCALE
  5
49
102
{ACAD_REACTORS
330
47
102
}
330
47
100
AcDbScale
 70
     0
300
1:2
140
1.0
141
2.0
290
     0
  0
SCALE
  5
4A
102
{ACAD_REACTORS
330
47
102
}
330
47
100
AcDbScale
 70
     0
300
1:4
140
1.0
141
4.0
290
     0
  0
SCALE
  5
4B
102
{ACAD_REACTORS
330
47
102
}
330
47
100
AcDbScale
 70
     0
300
1:5
140
1.0
141
5.0
290
     0
  0
SCALE
  5
4C
102
{ACAD_REACTORS
330
47
102
}
330
47
100
AcDbScale
 70
     0
300
1:8
140
1.0
141
8.0
290
     0
  0
SCALE
  5
4D
102
{ACAD_REACTORS
330
47
102
}
330
47
100
AcDbScale
 70
     0
300
1:10
140
1.0
141
10.0
290
     0
  0
SCALE
  5
4E
102
{ACAD_REACTORS
330
47
102
}
330
47
100
AcDbScale
 70
     0
300
1:16
140
1.0
141
16.0
290
     0
  0
SCALE
  5
4F
102
{ACAD_REACTORS
330
47
102
}
330
47
100
AcDbScale
 70
     0
300
1:20
140
1.0
141
20.0
290
     0
  0
SCALE
  5
50
102
{ACAD_REACTORS
330
47
102
}
330
47
100
AcDbScale
 70
     0
300
1:30
140
1.0
141
30.0
290
     0
  0
SCALE
  5
51
102
{ACAD_REACTORS
330
47
102
}
330
47
100
AcDbScale
 70
     0
300
1:40
140
1.0
141
40.0
290
     0
  0
SCALE
  5
52
102
{ACAD_REACTORS
330
47
102
}
330
47
100
AcDbScale
 70
     0
300
1:50
140
1.0
141
50.0
290
     0
  0
SCALE
  5
53
102
{ACAD_REACTORS
330
47
102
}
330
47
100
AcDbScale
 70
     0
300
1:100
140
1.0
141
100.0
290
     0
  0
SCALE
  5
54
102
{ACAD_REACTORS
330
47
102
}
330
47
100
AcDbScale
 70
     0
300
2:1
140
2.0
141
1.0
290
     0
  0
SCALE
  5
55
102
{ACAD_REACTORS
330
47
102
}
330
47
100
AcDbScale
 70
     0
300
4:1
140
4.0
141
1.0
290
     0
  0
SCALE
  5
56
102
{ACAD_REACTORS
330
47
102
}
330
47
100
AcDbScale
 70
     0
300
8:1
140
8.0
141
1.0
290
     0
  0
SCALE
  5
57
102
{ACAD_REACTORS
330
47
102
}
330
47
100
AcDbScale
 70
     0
300
10:1
140
10.0
141
1.0
290
     0
  0
SCALE
  5
58
102
{ACAD_REACTORS
330
47
102
}
330
47
100
AcDbScale
 70
     0
300
100:1
140
100.0
141
1.0
290
     0
  0
SCALE
  5
59
102
{ACAD_REACTORS
330
47
102
}
330
47
100
AcDbScale
 70
     0
300
1/128" = 1'-0"
140
0.0078125
141
12.0
290
     0
  0
SCALE
  5
5A
102
{ACAD_REACTORS
330
47
102
}
330
47
100
AcDbScale
 70
     0
300
1/64" = 1'-0"
140
0.015625
141
12.0
290
     0
  0
SCALE
  5
5B
102
{ACAD_REACTORS
330
47
102
}
330
47
100
AcDbScale
 70
     0
300
1/32" = 1'-0"
140
0.03125
141
12.0
290
     0
  0
SCALE
  5
5C
102
{ACAD_REACTORS
330
47
102
}
330
47
100
AcDbScale
 70
     0
300
1/16" = 1'-0"
140
0.0625
141
12.0
290
     0
  0
SCALE
  5
5D
102
{ACAD_REACTORS
330
47
102
}
330
47
100
AcDbScale
 70
     0
300
3/32" = 1'-0"
140
0.09375
141
12.0
290
     0
  0
SCALE
  5
5E
102
{ACAD_REACTORS
330
47
102
}
330
47
100
AcDbScale
 70
     0
300
1/8" = 1'-0"
140
0.125
141
12.0
290
     0
  0
SCALE
  5
5F
102
{ACAD_REACTORS
330
47
102
}
330
47
100
AcDbScale
 70
     0
300
3/16" = 1'-0"
140
0.1875
141
12.0
290
     0
  0
SCALE
  5
60
102
{ACAD_REACTORS
330
47
102
}
330
47
100
AcDbScale
 70
     0
300
1/4" = 1'-0"
140
0.25
141
12.0
290
     0
  0
SCALE
  5
61
102
{ACAD_REACTORS
330
47
102
}
330
47
100
AcDbScale
 70
     0
300
3/8" = 1'-0"
140
0.375
141
12.0
290
     0
  0
SCALE
  5
62
102
{ACAD_REACTORS
330
47
102
}
330
47
100
AcDbScale
 70
     0
300
1/2" = 1'-0"
140
0.5
141
12.0
290
     0
  0
SCALE
  5
63
102
{ACAD_REACTORS
330
47
102
}
330
47
100
AcDbScale
 70
     0
300
3/4" = 1'-0"
140
0.75
141
12.0
290
     0
  0
SCALE
  5
64
102
{ACAD_REACTORS
330
47
102
}
330
47
100
AcDbScale
 70
     0
300
1" = 1'-0"
140
1.0
141
12.0
290
     0
  0
SCALE
  5
65
102
{ACAD_REACTORS
330
47
102
}
330
47
100
AcDbScale
 70
     0
300
1-1/2" = 1'-0"
140
1.5
141
12.0
290
     0
  0
SCALE
  5
66
102
{ACAD_REACTORS
330
47
102
}
330
47
100
AcDbScale
 70
     0
300
3" = 1'-0"
140
3.0
141
12.0
290
     0
  0
SCALE
  5
67
102
{ACAD_REACTORS
330
47
102
}
330
47
100
AcDbScale
 70
     0
300
6" = 1'-0"
140
6.0
141
12.0
290
     0
  0
SCALE
  5
68
102
{ACAD_REACTORS
330
47
102
}
330
47
100
AcDbScale
 70
     0
300
1'-0" = 1'-0"
140
12.0
141
12.0
290
     0
  0
ENDSEC
  0
EOF
